  0
SECTION
  2
HEADER
  9
$ACADVER
  1
AC1009
  9
$INSBASE
 10
0.0
 20
0.0
 30
0.0
  9
$EXTMIN
 10
-260.02197097989512
 20
-399.89220955822299
 30
-0.0015258207003583
  9
$EXTMAX
 10
460.0219743326561
 20
670.62804802803294
 30
0.0000000349246037
  9
$LIMMIN
 10
0.0
 20
0.0
  9
$LIMMAX
 10
0.0
 20
0.0
  9
$ORTHOMODE
 70
     0
  9
$REGENMODE
 70
     1
  9
$FILLMODE
 70
     1
  9
$QTEXTMODE
 70
     0
  9
$MIRRTEXT
 70
     1
  9
$DRAGMODE
 70
     2
  9
$LTSCALE
 40
20.32
  9
$OSMODE
 70
   231
  9
$ATTMODE
 70
     1
  9
$TEXTSIZE
 40
0.0
  9
$TRACEWID
 40
1.0
  9
$TEXTSTYLE
  7
STANDARD
  9
$CLAYER
  8
DATA
  9
$CELTYPE
  6
BYLAYER
  9
$CECOLOR
 62
   256
  9
$DIMSCALE
 40
1.0
  9
$DIMASZ
 40
0.18
  9
$DIMEXO
 40
0.0625
  9
$DIMDLI
 40
0.38
  9
$DIMRND
 40
0.0
  9
$DIMDLE
 40
0.0
  9
$DIMEXE
 40
0.18
  9
$DIMTP
 40
0.0
  9
$DIMTM
 40
0.0
  9
$DIMTXT
 40
0.18
  9
$DIMCEN
 40
0.09
  9
$DIMTSZ
 40
0.0
  9
$DIMTOL
 70
     0
  9
$DIMLIM
 70
     0
  9
$DIMTIH
 70
     1
  9
$DIMTOH
 70
     1
  9
$DIMSE1
 70
     0
  9
$DIMSE2
 70
     0
  9
$DIMTAD
 70
     0
  9
$DIMZIN
 70
     0
  9
$DIMBLK
  1

  9
$DIMASO
 70
     1
  9
$DIMSHO
 70
     1
  9
$DIMPOST
  1

  9
$DIMAPOST
  1

  9
$DIMALT
 70
     0
  9
$DIMALTD
 70
     2
  9
$DIMALTF
 40
25.399999999999999
  9
$DIMLFAC
 40
1.0
  9
$DIMTOFL
 70
     0
  9
$DIMTVP
 40
0.0
  9
$DIMTIX
 70
     0
  9
$DIMSOXD
 70
     0
  9
$DIMSAH
 70
     0
  9
$DIMBLK1
  1

  9
$DIMBLK2
  1

  9
$DIMSTYLE
  2
STANDARD
  9
$DIMCLRD
 70
     0
  9
$DIMCLRE
 70
     0
  9
$DIMCLRT
 70
     0
  9
$DIMTFAC
 40
1.0
  9
$DIMGAP
 40
0.09
  9
$LUNITS
 70
     2
  9
$LUPREC
 70
     4
  9
$SKETCHINC
 40
0.1
  9
$FILLETRAD
 40
0.0
  9
$AUNITS
 70
     0
  9
$AUPREC
 70
     0
  9
$MENU
  1
acad
  9
$ELEVATION
 40
0.0
  9
$PELEVATION
 40
0.0
  9
$THICKNESS
 40
0.0
  9
$LIMCHECK
 70
     0
  9
$BLIPMODE
 70
     0
  9
$CHAMFERA
 40
0.0
  9
$CHAMFERB
 40
0.0
  9
$SKPOLY
 70
     0
  9
$TDCREATE
 40
2455037.7223379631
  9
$TDUPDATE
 40
2455037.7375226738
  9
$TDINDWG
 40
0.000265787
  9
$TDUSRTIMER
 40
0.000265787
  9
$USRTIMER
 70
     1
  9
$ANGBASE
 50
0.0
  9
$ANGDIR
 70
     0
  9
$PDMODE
 70
     1
  9
$PDSIZE
 40
-2.0
  9
$PLINEWID
 40
0.0
  9
$COORDS
 70
     0
  9
$SPLFRAME
 70
     0
  9
$SPLINETYPE
 70
     6
  9
$SPLINESEGS
 70
     8
  9
$ATTDIA
 70
     0
  9
$ATTREQ
 70
     1
  9
$HANDLING
 70
     1
  9
$HANDSEED
  5
44D
  9
$SURFTAB1
 70
     6
  9
$SURFTAB2
 70
     6
  9
$SURFTYPE
 70
     6
  9
$SURFU
 70
     6
  9
$SURFV
 70
     6
  9
$UCSNAME
  2

  9
$UCSORG
 10
0.0
 20
0.0
 30
0.0
  9
$UCSXDIR
 10
1.0
 20
0.0
 30
0.0
  9
$UCSYDIR
 10
0.0
 20
1.0
 30
0.0
  9
$PUCSNAME
  2

  9
$PUCSORG
 10
0.0
 20
0.0
 30
0.0
  9
$PUCSXDIR
 10
1.0
 20
0.0
 30
0.0
  9
$PUCSYDIR
 10
0.0
 20
1.0
 30
0.0
  9
$USERI1
 70
     0
  9
$USERI2
 70
     0
  9
$USERI3
 70
     0
  9
$USERI4
 70
     0
  9
$USERI5
 70
     0
  9
$USERR1
 40
0.0
  9
$USERR2
 40
0.0
  9
$USERR3
 40
0.0
  9
$USERR4
 40
0.0
  9
$USERR5
 40
0.0
  9
$WORLDVIEW
 70
     1
  9
$SHADEDGE
 70
     3
  9
$SHADEDIF
 70
    70
  9
$TILEMODE
 70
     1
  9
$MAXACTVP
 70
    64
  9
$PLIMCHECK
 70
     0
  9
$PEXTMIN
 10
1.0000000000000000E+020
 20
1.0000000000000000E+020
 30
1.0000000000000000E+020
  9
$PEXTMAX
 10
-1.0000000000000000E+020
 20
-1.0000000000000000E+020
 30
-1.0000000000000000E+020
  9
$PLIMMIN
 10
0.0
 20
0.0
  9
$PLIMMAX
 10
12.0
 20
9.0
  9
$UNITMODE
 70
     0
  9
$VISRETAIN
 70
     0
  9
$PLINEGEN
 70
     1
  9
$PSLTSCALE
 70
     0
  0
ENDSEC
  0
SECTION
  2
TABLES
  0
TABLE
  2
VPORT
 70
     1
  0
VPORT
  2
*ACTIVE
 70
     0
 10
0.0
 20
0.0
 11
1.0
 21
1.0
 12
100.00000167638051
 22
135.367919234905
 13
0.0
 23
0.0
 14
1.0
 24
1.0
 15
0.0
 25
0.0
 16
0.0
 26
0.0
 36
1.0
 17
0.0
 27
0.0
 37
0.0
 40
1078.4110702957371
 41
1.964329643296433
 42
50.0
 43
0.0
 44
0.0
 50
0.0
 51
0.0
 71
     0
 72
  2000
 73
     1
 74
     1
 75
     0
 76
     0
 77
     0
 78
     0
  0
ENDTAB
  0
TABLE
  2
LTYPE
 70
    11
  0
LTYPE
  2
CONTINUOUS
 70
     0
  3
Solid line
 72
    65
 73
     0
 40
0.0
  0
LTYPE
  2
STYLE_05
 70
     0
  3

 72
    65
 73
     2
 40
0.208282470703125
 49
0.069427490234375
 49
-0.13885498046875
  0
ENDTAB
  0
TABLE
  2
LAYER
 70
     5
  0
LAYER
  2
0
 70
     0
 62
     7
  6
CONTINUOUS
  0
LAYER
  2
DATA
 70
     0
 62
     7
  6
CONTINUOUS
  0
LAYER
  2
HIBINO-BASE
 70
     0
 62
     7
  6
CONTINUOUS
  0
LAYER
  2
SPEC
 70
     0
 62
     7
  6
CONTINUOUS
  0
LAYER
  2
DIMNSIONS
 70
     0
 62
     7
  6
CONTINUOUS
  0
ENDTAB
  0
TABLE
  2
STYLE
 70
     3
  0
STYLE
  2
STANDARD
 70
     0
 40
0.0
 41
1.0
 50
0.0
 71
     0
 42
0.0
  3
txt
  4
BIGFONT.SHX
  0
ENDTAB
  0
TABLE
  2
VIEW
 70
     0
  0
ENDTAB
  0
TABLE
  2
UCS
 70
     0
  0
ENDTAB
  0
TABLE
  2
APPID
 70
     3
  0
APPID
  2
ACAD
 70
     0
  0
APPID
  2
ACADANNOTATIVE
 70
     0
  0
APPID
  2
ACAD_MLEADERVER
 70
     0
  0
ENDTAB
  0
TABLE
  2
DIMSTYLE
 70
     2
  0
DIMSTYLE
  2
STANDARD
 70
     0
  3

  4

  5

  6

  7

 40
1.0
 41
0.18
 42
0.0625
 43
0.38
 44
0.18
 45
0.0
 46
0.0
 47
0.0
 48
0.0
140
0.18
141
0.09
142
0.0
143
25.399999999999999
144
1.0
145
0.0
146
1.0
147
0.09
 71
     0
 72
     0
 73
     1
 74
     1
 75
     0
 76
     0
 77
     0
 78
     0
170
     0
171
     2
172
     0
173
     0
174
     0
175
     0
176
     0
177
     0
178
     0
  0
ENDTAB
  0
ENDSEC
  0
SECTION
  2
BLOCKS
  0
BLOCK
  8
0
  2
$MODEL_SPACE
 70
     0
 10
0.0
 20
0.0
 30
0.0
  3
$MODEL_SPACE
  1

  0
ENDBLK
  5
36F
  8
0
  0
BLOCK
 67
     1
  8
0
  2
$PAPER_SPACE
 70
     0
 10
0.0
 20
0.0
 30
0.0
  3
$PAPER_SPACE
  1

  0
ENDBLK
  5
36B
 67
     1
  8
0
  0
ENDSEC
  0
SECTION
  2
ENTITIES
  0
LINE
  5
2C
  8
HIBINO-BASE
  6
CONTINUOUS
 62
     7
 10
-260.0
 20
670.59544499999981
 30
0.0
 11
460.0
 21
670.59544499999981
 31
0.0
  0
LINE
  5
2D
  8
HIBINO-BASE
  6
CONTINUOUS
 62
     7
 10
460.0
 20
-369.40455500000002
 30
0.0
 11
-260.0
 21
-369.40455500000002
 31
0.0
  0
LINE
  5
2E
  8
HIBINO-BASE
  6
CONTINUOUS
 62
     7
 10
-260.0
 20
-369.40455500000002
 30
0.0
 11
-260.0
 21
670.59544499999981
 31
0.0
  0
TEXT
  5
2F
  8
HIBINO-BASE
 62
     7
 10
-231.26400000000001
 20
-395.03926619999982
 30
0.0
 40
14.40017671875
  1
Hibino Corporation
 41
0.7
 11
-231.26400000000001
 21
-380.63908948124981
 31
0.0
 73
     3
  0
LINE
  5
30
  8
HIBINO-BASE
  6
CONTINUOUS
 62
     7
 10
460.0
 20
670.59544499999981
 30
0.0
 11
460.0
 21
-369.40455500000002
 31
0.0
  0
LINE
  5
31
  8
HIBINO-BASE
  6
CONTINUOUS
 62
     7
 10
100.0
 20
-279.40455500000002
 30
0.0
 11
460.0
 21
-279.40455500000002
 31
0.0
  0
LINE
  5
32
  8
HIBINO-BASE
  6
CONTINUOUS
 62
     7
 10
100.0
 20
-369.40455500000002
 30
0.0
 11
100.0
 21
-279.40455500000002
 31
0.0
  0
TEXT
  5
33
  8
HIBINO-BASE
 62
     7
 10
103.59999999999999
 20
-289.43932833333332
 30
0.0
 40
6.5153645833333318
  1
NOTE
 41
0.7
 11
103.59999999999999
 21
-282.92396374999998
 31
0.0
 73
     3
  0
LINE
  5
34
  8
HIBINO-BASE
  6
CONTINUOUS
 62
     7
 10
240.0
 20
-369.40455500000002
 30
0.0
 11
240.0
 21
-279.40455500000002
 31
0.0
  0
TEXT
  5
35
  8
HIBINO-BASE
 62
     7
 10
243.59999999999999
 20
-289.43932833333332
 30
0.0
 40
6.5153645833333318
  1
TITLE
 41
0.7
 11
243.59999999999999
 21
-282.92396374999998
 31
0.0
 73
     3
  0
TEXT
  5
36
  8
HIBINO-BASE
 62
     7
 10
300.27355999999997
 20
-395.03926619999982
 30
0.0
 40
14.40017671875
  1
ヒビノ株式会社
 41
0.7
 11
300.27355999999997
 21
-380.63908948124981
 31
0.0
 73
     3
  0
LINE
  5
37
  8
HIBINO-BASE
  6
CONTINUOUS
 62
     7
 10
100.0
 20
-329.40455500000002
 30
0.0
 11
460.0
 21
-329.40455500000002
 31
0.0
  0
TEXT
  5
38
  8
HIBINO-BASE
 62
     7
 10
293.60000000000002
 20
-339.21404833333332
 30
0.0
 40
6.5153645833333318
  1
DRAWN
 41
0.7
 11
293.60000000000002
 21
-332.69868374999999
 31
0.0
 73
     3
  0
TEXT
  5
39
  8
HIBINO-BASE
 62
     7
 10
193.59999999999999
 20
-339.21404833333332
 30
0.0
 40
6.5153645833333318
  1
DATE
 41
0.7
 11
193.59999999999999
 21
-332.69868374999999
 31
0.0
 73
     3
  0
TEXT
  5
3A
  8
HIBINO-BASE
 62
     7
 10
153.59999999999991
 20
-339.21404833333332
 30
0.0
 40
6.5153645833333318
  1
SCALE
 41
0.7
 11
153.59999999999991
 21
-332.69868374999999
 31
0.0
 73
     3
  0
TEXT
  5
3B
  8
HIBINO-BASE
 62
     7
 10
243.59999999999999
 20
-339.21404833333332
 30
0.0
 40
6.5153645833333318
  1
DESIGN
 41
0.7
 11
243.59999999999999
 21
-332.69868374999999
 31
0.0
 73
     3
  0
TEXT
  5
3C
  8
HIBINO-BASE
 62
     7
 10
393.60000000000002
 20
-339.21404833333332
 30
0.0
 40
6.5153645833333318
  1
DRAWING NO.
 41
0.7
 11
393.60000000000002
 21
-332.69868374999999
 31
0.0
 73
     3
  0
TEXT
  5
3D
  8
HIBINO-BASE
 62
     7
 10
343.60000000000002
 20
-339.21404833333332
 30
0.0
 40
6.5153645833333318
  1
CHECK
 41
0.7
 11
343.60000000000002
 21
-332.69868374999999
 31
0.0
 73
     3
  0
LINE
  5
3E
  8
HIBINO-BASE
  6
CONTINUOUS
 62
     7
 10
157.5
 20
-364.40455500000002
 30
0.0
 11
172.5
 21
-349.40455500000002
 31
0.0
  0
TEXT
  5
3F
  8
HIBINO-BASE
 62
     7
 10
155.0
 20
-353.84032833333328
 30
0.0
 40
6.5153645833333318
  1
1
 41
0.7
 11
155.0
 21
-347.32496374999999
 31
0.0
 73
     3
  0
LINE
  5
40
  8
HIBINO-BASE
  6
CONTINUOUS
 62
     7
 10
150.0
 20
-369.40455500000002
 30
0.0
 11
150.0
 21
-329.40455500000002
 31
0.0
  0
LINE
  5
41
  8
HIBINO-BASE
  6
CONTINUOUS
 62
     7
 10
190.0
 20
-369.40455500000002
 30
0.0
 11
190.0
 21
-329.40455500000002
 31
0.0
  0
LINE
  5
42
  8
HIBINO-BASE
  6
CONTINUOUS
 62
     7
 10
290.0
 20
-329.40455500000002
 30
0.0
 11
290.0
 21
-369.40455500000002
 31
0.0
  0
LINE
  5
43
  8
HIBINO-BASE
  6
CONTINUOUS
 62
     7
 10
390.0
 20
-329.40455500000002
 30
0.0
 11
390.0
 21
-369.40455500000002
 31
0.0
  0
LINE
  5
44
  8
HIBINO-BASE
  6
CONTINUOUS
 62
     7
 10
339.99999999999989
 20
-369.40455500000002
 30
0.0
 11
339.99999999999989
 21
-329.40455500000002
 31
0.0
  0
TEXT
  5
45
  8
HIBINO-BASE
 62
     7
 10
193.42616000000001
 20
-357.9499683333334
 30
0.0
 40
6.5153645833333318
  1
'09.07.
 41
0.7
 11
193.42616000000001
 21
-351.43460375000001
 31
0.0
 73
     3
  0
TEXT
  5
46
  8
HIBINO-BASE
 62
     7
 10
170.0
 20
-361.34032833333339
 30
0.0
 40
6.5153645833333318
  1
4
 41
0.7
 11
170.0
 21
-354.82496374999999
 31
0.0
 73
     3
  0
TEXT
  5
47
  8
HIBINO-BASE
 62
     7
 10
296.0232400441385
 20
-357.9499683333334
 30
0.0
 40
6.5153645833333318
  1
N.Sasaki
 41
0.7
 11
296.0232400441385
 21
-351.43460375000001
 31
0.0
 73
     3
  0
TEXT
  5
48
  8
HIBINO-BASE
 62
     7
 10
115.5333333333334
 20
-361.50055500000002
 30
0.0
 40
13.03072916666666
  1
A4
 41
0.7
 11
115.5333333333334
 21
-348.46982583333329
 31
0.0
 73
     3
  0
TEXT
  5
49
  8
HIBINO-BASE
 62
     7
 10
103.8333333333333
 20
-339.88237500000002
 30
0.0
 40
6.5153645833333318
  1
PAPER SIZE
 41
0.7
 11
103.8333333333333
 21
-333.36701041666657
 31
0.0
 73
     3
  0
LINE
  5
4A
  8
SPEC
  6
CONTINUOUS
 62
     7
 10
-230.0
 20
630.5954449999997
 30
0.0
 11
360.0
 21
630.5954449999997
 31
0.0
  0
LINE
  5
4B
  8
SPEC
  6
CONTINUOUS
 62
     7
 10
-230.0
 20
615.59544499999981
 30
0.0
 11
360.0
 21
615.59544499999981
 31
0.0
  0
LINE
  5
4C
  8
SPEC
  6
CONTINUOUS
 62
     7
 10
-230.0
 20
555.59544499999993
 30
0.0
 11
360.0
 21
555.59544499999993
 31
0.0
  0
LINE
  5
4D
  8
SPEC
  6
CONTINUOUS
 62
     7
 10
-230.0
 20
540.59544499999993
 30
0.0
 11
360.0
 21
540.59544499999993
 31
0.0
  0
LINE
  5
4E
  8
SPEC
  6
CONTINUOUS
 62
     7
 10
-230.0
 20
510.59544499999993
 30
0.0
 11
360.0
 21
510.59544499999993
 31
0.0
  0
LINE
  5
4F
  8
SPEC
  6
CONTINUOUS
 62
     7
 10
-230.0
 20
525.59544499999993
 30
0.0
 11
360.0
 21
525.59544499999993
 31
0.0
  0
LINE
  5
50
  8
SPEC
  6
CONTINUOUS
 62
     7
 10
-230.0
 20
630.5954449999997
 30
0.0
 11
-230.0
 21
510.59544499999993
 31
0.0
  0
TEXT
  5
51
  8
SPEC
 62
     7
 10
-225.0
 20
636.16852499999982
 30
0.0
 40
9.7730468750000004
  1
仕様
 41
0.7
 11
-225.0
 21
645.94157187499979
 31
0.0
 73
     3
  0
LINE
  5
52
  8
SPEC
  6
CONTINUOUS
 62
     7
 10
-100.0
 20
630.5954449999997
 30
0.0
 11
-100.0
 21
510.59544499999993
 31
0.0
  0
LINE
  5
53
  8
SPEC
  6
CONTINUOUS
 62
     7
 10
360.0
 20
630.5954449999997
 30
0.0
 11
360.0
 21
510.59544499999993
 31
0.0
  0
TEXT
  5
54
  8
SPEC
 62
     7
 10
-226.64322095877881
 20
619.6438620867533
 30
0.0
 40
7.6012586805555546
  1
形式
 41
0.7
 11
-226.64322095877881
 21
627.24512076730878
 31
0.0
 73
     3
  0
TEXT
  5
55
  8
SPEC
 62
     7
 10
-96.516315967284854
 20
529.78798330056918
 30
0.0
 40
7.6012586805555546
  1
約1.0kg
 41
0.7
 11
-96.516315967284854
 21
537.38924198112477
 31
0.0
 73
     3
  0
TEXT
  5
56
  8
SPEC
 62
     7
 10
-226.78258691970319
 20
544.79602184057319
 30
0.0
 40
7.6012586805555546
  1
寸法
 41
0.7
 11
-226.78258691970319
 21
552.39728052112889
 31
0.0
 73
     3
  0
TEXT
  5
57
  8
SPEC
 62
     7
 10
-226.53504929387159
 20
529.50099346798606
 30
0.0
 40
7.6012586805555546
  1
重量
 41
0.7
 11
-226.53504929387159
 21
537.10225214854165
 31
0.0
 73
     3
  0
TEXT
  5
58
  8
SPEC
 62
     7
 10
-96.373816047081235
 20
544.11800568015406
 30
0.0
 40
7.6012586805555546
  1
200(W)\U+00D743(H)\U+00D7186(D)mm(突起部含まず)
 41
0.7
 11
-96.373816047081235
 21
551.71926436070964
 31
0.0
 73
     3
  0
TEXT
  5
59
  8
SPEC
 62
     7
 10
-96.781330608076601
 20
619.45931465773526
 30
0.0
 40
7.6012586805555546
  1
アンテナ分配器
 41
0.7
 11
-96.781330608076601
 21
627.06057333829085
 31
0.0
 73
     3
  0
TEXT
  5
5A
  8
SPEC
 62
     7
 10
-226.63061987715719
 20
604.5973990150618
 30
0.0
 40
7.6012586805555546
  1
対応周波数帯域
 41
0.7
 11
-226.63061987715719
 21
612.19865769561738
 31
0.0
 73
     3
  0
TEXT
  5
5B
  8
SPEC
 62
     7
 10
-96.265670515206935
 20
604.11634914586955
 30
0.0
 40
7.6012586805555546
  1
500～865MHz(B型 ・A型・A2型)
 41
0.7
 11
-96.265670515206935
 21
611.71760782642525
 31
0.0
 73
     3
  0
TEXT
  5
5C
  8
SPEC
 62
     7
 10
-226.68387148446769
 20
559.66969843563095
 30
0.0
 40
7.6012586805555546
  1
電源
 41
0.7
 11
-226.68387148446769
 21
567.27095711618654
 31
0.0
 73
     3
  0
TEXT
  5
5D
  8
SPEC
 62
     7
 10
-96.288391944314441
 20
559.41902839835006
 30
0.0
 40
7.6012586805555546
  1
DC12V 付属のACアダプター(AC100V,50/60Hz,80mA)　　
 41
0.7
 11
-96.288391944314441
 21
567.02028707890565
 31
0.0
 73
     3
  0
TEXT
  5
5E
  8
SPEC
 62
     7
 10
-96.134027854625955
 20
589.36712802939564
 30
0.0
 40
7.6012586805555546
  1
-14～0dB,8段階切り替え　
 41
0.7
 11
-96.134027854625955
 21
596.96838670995123
 31
0.0
 73
     3
  0
TEXT
  5
5F
  8
SPEC
 62
     7
 10
-97.205063697061135
 20
515.50376649527277
 30
0.0
 40
7.6012586805555546
  1
ラックマウントキット，ACアダプター
 41
0.7
 11
-97.205063697061135
 21
523.10502517582847
 31
0.0
 73
     3
  0
TEXT
  5
60
  8
SPEC
 62
     7
 10
-226.38365254439651
 20
514.84612299160915
 30
0.0
 40
7.6012586805555546
  1
付属品
 41
0.7
 11
-226.38365254439651
 21
522.44738167216485
 31
0.0
 73
     3
  0
LINE
  5
61
  8
SPEC
  6
CONTINUOUS
 62
     7
 10
-230.0
 20
600.59544499999981
 30
0.0
 11
360.0
 21
600.59544499999981
 31
0.0
  0
LINE
  5
62
  8
SPEC
  6
CONTINUOUS
 62
     7
 10
-230.0
 20
585.5954449999997
 30
0.0
 11
360.0
 21
585.5954449999997
 31
0.0
  0
LINE
  5
63
  8
SPEC
  6
CONTINUOUS
 62
     7
 10
-230.0
 20
570.59544499999981
 30
0.0
 11
360.0
 21
570.59544499999981
 31
0.0
  0
TEXT
  5
64
  8
SPEC
 62
     7
 10
-226.85998497310331
 20
588.99452992775275
 30
0.0
 40
7.6012586805555546
  1
ゲイン
 41
0.7
 11
-226.85998497310331
 21
596.59578860830845
 31
0.0
 73
     3
  0
TEXT
  5
65
  8
SPEC
 62
     7
 10
-227.4255022682851
 20
574.70142654672964
 30
0.0
 40
7.6012586805555546
  1
コネクター
 41
0.7
 11
-227.4255022682851
 21
582.30268522728522
 31
0.0
 73
     3
  0
TEXT
  5
66
  8
SPEC
 62
     7
 10
-96.396744343575364
 20
574.47224772050436
 30
0.0
 40
7.6012586805555546
  1
RF入力：BNC(50\U+03A9)\U+00D72,RF出力：BNC(50\U+03A9)\U+00D710
 41
0.7
 11
-96.396744343575364
 21
582.07350640105994
 31
0.0
 73
     3
  0
TEXT
  5
67
  8
DIMNSIONS
 62
     7
 10
19.999999999999979
 20
-320.326595
 30
0.0
 40
9.7730468750000004
  1
(単位：mm)
 41
0.7
 11
19.999999999999979
 21
-310.55354812500002
 31
0.0
 73
     3
  0
LINE
  5
68
  8
DIMNSIONS
  6
CONTINUOUS
 62
     7
 10
-150.0
 20
-183.0
 30
0.0
 11
-150.0
 21
-220.5
 31
0.0
  0
LINE
  5
69
  8
DIMNSIONS
  6
CONTINUOUS
 62
     7
 10
50.0
 20
-183.0
 30
0.0
 11
50.0
 21
-220.5
 31
0.0
  0
LINE
  5
6A
  8
DIMNSIONS
  6
CONTINUOUS
 62
     7
 10
-150.0
 20
-212.5
 30
0.0
 11
50.0
 21
-212.5
 31
0.0
  0
LINE
  5
6B
  8
DIMNSIONS
  6
CONTINUOUS
 62
     7
 10
-150.0
 20
-212.5
 30
0.0
 11
-139.99750976562501
 21
-209.81984081939899
 31
0.0
  0
LINE
  5
6C
  8
DIMNSIONS
  6
CONTINUOUS
 62
     7
 10
-150.0
 20
-212.5
 30
0.0
 11
-139.99750976562501
 21
-215.18015918060101
 31
0.0
  0
LINE
  5
6D
  8
DIMNSIONS
  6
CONTINUOUS
 62
     7
 10
50.0
 20
-212.5
 30
0.0
 11
39.997509765624983
 21
-215.18015918060101
 31
0.0
  0
LINE
  5
6E
  8
DIMNSIONS
  6
CONTINUOUS
 62
     7
 10
50.0
 20
-212.5
 30
0.0
 11
39.997509765624983
 21
-209.81984081939899
 31
0.0
  0
TEXT
  5
6F
  8
DIMNSIONS
 62
     7
 10
-60.583333333333357
 20
-208.5244444444445
 30
0.0
 40
10.85894097222222
  1
200
 41
0.7
 11
-60.583333333333357
 21
-197.6655034722223
 31
0.0
 73
     3
  0
LINE
  5
70
  8
DIMNSIONS
  6
CONTINUOUS
 62
     7
 10
-57.999999999999183
 20
-50.000000000000021
 30
0.0
 11
-195.5
 21
-50.000000000000021
 31
0.0
  0
LINE
  5
71
  8
DIMNSIONS
  6
CONTINUOUS
 62
     7
 10
-158.0
 20
135.99999999999989
 30
0.0
 11
-195.5
 21
135.99999999999989
 31
0.0
  0
LINE
  5
72
  8
DIMNSIONS
  6
CONTINUOUS
 62
     7
 10
-187.5
 20
-50.000000000000021
 30
0.0
 11
-187.5
 21
135.99999999999989
 31
0.0
  0
LINE
  5
73
  8
DIMNSIONS
  6
CONTINUOUS
 62
     7
 10
-187.5
 20
-50.000000000000021
 30
0.0
 11
-190.18015918060101
 21
-39.99750976562504
 31
0.0
  0
LINE
  5
74
  8
DIMNSIONS
  6
CONTINUOUS
 62
     7
 10
-187.5
 20
-50.000000000000021
 30
0.0
 11
-184.81984081939899
 21
-39.99750976562504
 31
0.0
  0
LINE
  5
75
  8
DIMNSIONS
  6
CONTINUOUS
 62
     7
 10
-187.5
 20
135.99999999999989
 30
0.0
 11
-184.81984081939899
 21
125.997509765625
 31
0.0
  0
LINE
  5
76
  8
DIMNSIONS
  6
CONTINUOUS
 62
     7
 10
-187.5
 20
135.99999999999989
 30
0.0
 11
-190.18015918060101
 21
125.997509765625
 31
0.0
  0
TEXT
  5
77
  8
DIMNSIONS
 62
     7
 10
-191.4755555555555
 20
39.416666666666671
 30
0.0
 40
10.85894097222222
  1
186
 50
90.0
 41
0.7
 11
-202.3344965277777
 21
39.416666666666671
 31
0.0
 73
     3
  0
LINE
  5
78
  8
DIMNSIONS
  6
CONTINUOUS
 62
     7
 10
-141.0
 20
-175.0
 30
0.0
 11
-141.0
 21
-176.0
 31
0.0
  0
LINE
  5
79
  8
DIMNSIONS
  6
CONTINUOUS
 62
     7
 10
-129.0
 20
-175.0
 30
0.0
 11
-129.0
 21
-176.0
 31
0.0
  0
LINE
  5
7A
  8
DIMNSIONS
  6
CONTINUOUS
 62
     7
 10
-141.0
 20
-176.0
 30
0.0
 11
-129.0
 21
-176.0
 31
0.0
  0
LINE
  5
7B
  8
DIMNSIONS
  6
CONTINUOUS
 62
     7
 10
-149.0
 20
-176.0
 30
0.0
 11
-195.5
 21
-176.0
 31
0.0
  0
LINE
  5
7C
  8
DIMNSIONS
  6
CONTINUOUS
 62
     7
 10
-155.0
 20
-132.0
 30
0.0
 11
-195.5
 21
-132.0
 31
0.0
  0
LINE
  5
7D
  8
DIMNSIONS
  6
CONTINUOUS
 62
     7
 10
-187.5
 20
-176.0
 30
0.0
 11
-187.5
 21
-132.0
 31
0.0
  0
LINE
  5
7E
  8
DIMNSIONS
  6
CONTINUOUS
 62
     7
 10
-187.5
 20
-176.0
 30
0.0
 11
-190.18015918060101
 21
-165.99750976562501
 31
0.0
  0
LINE
  5
7F
  8
DIMNSIONS
  6
CONTINUOUS
 62
     7
 10
-187.5
 20
-176.0
 30
0.0
 11
-184.81984081939899
 21
-165.99750976562501
 31
0.0
  0
LINE
  5
80
  8
DIMNSIONS
  6
CONTINUOUS
 62
     7
 10
-187.5
 20
-132.0
 30
0.0
 11
-184.81984081939899
 21
-142.00249023437499
 31
0.0
  0
LINE
  5
81
  8
DIMNSIONS
  6
CONTINUOUS
 62
     7
 10
-187.5
 20
-132.0
 30
0.0
 11
-190.18015918060101
 21
-142.00249023437499
 31
0.0
  0
TEXT
  5
82
  8
DIMNSIONS
 62
     7
 10
-191.4755555555555
 20
-161.05555555555549
 30
0.0
 40
10.85894097222222
  1
44
 50
90.0
 41
0.7
 11
-202.3344965277777
 21
-161.05555555555549
 31
0.0
 73
     3
  0
LINE
  5
83
  8
DIMNSIONS
  6
CONTINUOUS
 62
     7
 10
-158.0
 20
135.99999999999989
 30
0.0
 11
-195.5
 21
135.99999999999989
 31
0.0
  0
LINE
  5
84
  8
DIMNSIONS
  6
CONTINUOUS
 62
     7
 10
-146.3041066202631
 20
155.0
 30
0.0
 11
-195.5
 21
155.0
 31
0.0
  0
LINE
  5
85
  8
DIMNSIONS
  6
CONTINUOUS
 62
     7
 10
-187.5
 20
155.0
 30
0.0
 11
-187.5
 21
135.99999999999989
 31
0.0
  0
LINE
  5
86
  8
DIMNSIONS
  6
CONTINUOUS
 62
     7
 10
-187.5
 20
135.99999999999989
 30
0.0
 11
-187.5
 21
115.9999999999999
 31
0.0
  0
LINE
  5
87
  8
DIMNSIONS
  6
CONTINUOUS
 62
     7
 10
-187.5
 20
135.99999999999989
 30
0.0
 11
-184.81984081939899
 21
125.997509765625
 31
0.0
  0
LINE
  5
88
  8
DIMNSIONS
  6
CONTINUOUS
 62
     7
 10
-187.5
 20
135.99999999999989
 30
0.0
 11
-190.18015918060101
 21
125.997509765625
 31
0.0
  0
LINE
  5
89
  8
DIMNSIONS
  6
CONTINUOUS
 62
     7
 10
-187.5
 20
155.0
 30
0.0
 11
-187.5
 21
175.0
 31
0.0
  0
LINE
  5
8A
  8
DIMNSIONS
  6
CONTINUOUS
 62
     7
 10
-187.5
 20
155.0
 30
0.0
 11
-190.18015918060101
 21
165.0024902343749
 31
0.0
  0
LINE
  5
8B
  8
DIMNSIONS
  6
CONTINUOUS
 62
     7
 10
-187.5
 20
155.0
 30
0.0
 11
-184.81984081939899
 21
165.0024902343749
 31
0.0
  0
TEXT
  5
8C
  8
DIMNSIONS
 62
     7
 10
-191.4755555555555
 20
138.4444444444444
 30
0.0
 40
10.85894097222222
  1
19
 50
90.0
 41
0.7
 11
-202.3344965277777
 21
138.4444444444444
 31
0.0
 73
     3
  0
TEXT
  5
8D
  8
DATA
 62
     7
 10
-40.742353596034363
 20
-147.0718374423011
 30
0.0
 40
2.7147352430555549
  1
ANTENNA B 
 41
0.7
 11
-40.742353596034363
 21
-144.35710219924559
 31
0.0
 73
     3
  0
TEXT
  5
8E
  8
DATA
 62
     7
 10
300.0
 20
-324.88099499999993
 30
0.0
 40
9.7730468750000004
  1
PS 4000W
 41
0.7
 11
300.0
 21
-315.10794812500001
 31
0.0
 73
     3
  0
TEXT
  5
8F
  8
DATA
 62
     7
 10
300.0
 20
-295.88099499999993
 30
0.0
 40
9.7730468750000004
  1
AKG
 41
0.7
 11
300.0
 21
-286.10794812500001
 31
0.0
 73
     3
  0
TEXT
  5
90
  8
DATA
 62
     7
 10
290.0
 20
-309.7888198
 30
0.0
 40
6.5153748437499992
  1
アンテナ分配器
 41
0.7
 11
290.0
 21
-303.27344495624999
 31
0.0
 73
     3
  0
TEXT
  5
91
  8
DATA
 62
     7
 10
-220.0
 20
-352.45255500000007
 30
0.0
 40
6.5153645833333318
  1
仕様および外観は予告なく変更されることがありますので、ご了承ください。
 41
0.7
 11
-220.0
 21
-345.93719041666668
 31
0.0
 73
     3
  0
LINE
  5
92
  8
DATA
  6
CONTINUOUS
 62
     7
 10
-150.0
 20
-172.0
 30
0.0
 11
-150.0
 21
-156.19999999999999
 31
0.0
  0
LINE
  5
93
  8
DATA
  6
CONTINUOUS
 62
     7
 10
-150.0
 20
-152.80000000000001
 30
0.0
 11
-150.0
 21
-135.0
 31
0.0
  0
LINE
  5
94
  8
DATA
  6
CONTINUOUS
 62
     7
 10
46.999999999999993
 20
-175.0
 30
0.0
 11
-147.0
 21
-175.0
 31
0.0
  0
LINE
  5
95
  8
DATA
  6
CONTINUOUS
 62
     7
 10
50.0
 20
-135.0
 30
0.0
 11
50.0
 21
-152.80000000000001
 31
0.0
  0
LINE
  5
96
  8
DATA
  6
CONTINUOUS
 62
     7
 10
50.0
 20
-156.19999999999999
 30
0.0
 11
50.0
 21
-172.0
 31
0.0
  0
LINE
  5
97
  8
DATA
  6
CONTINUOUS
 62
     7
 10
-147.0
 20
-132.0
 30
0.0
 11
46.999999999999993
 21
-132.0
 31
0.0
  0
LINE
  5
98
  8
DATA
  6
CONTINUOUS
 62
     7
 10
-150.0
 20
-39.836390143970107
 30
0.0
 11
-150.0
 21
135.99999999999989
 31
0.0
  0
LINE
  5
99
  8
DATA
  6
CONTINUOUS
 62
     7
 10
50.0
 20
135.99999999999989
 30
0.0
 11
50.0
 21
-39.836390143970107
 31
0.0
  0
LINE
  5
9A
  8
DATA
  6
CONTINUOUS
 62
     7
 10
150.0
 20
-170.69758039938171
 30
0.0
 11
150.0
 21
-136.12796031191661
 31
0.0
  0
LINE
  5
9B
  8
DATA
  6
CONTINUOUS
 62
     7
 10
336.0
 20
-175.0
 30
0.0
 11
171.9999999999998
 21
-175.0
 31
0.0
  0
ARC
  5
9C
  8
DATA
  6
CONTINUOUS
 62
     7
 10
-147.0
 20
-135.0
 30
0.0
 40
3.0
 50
90.0
 51
180.0
  0
ARC
  5
9D
  8
DATA
  6
CONTINUOUS
 62
     7
 10
-147.0
 20
-172.0
 30
0.0
 40
3.0
 50
180.0
 51
270.0
  0
ARC
  5
9E
  8
DATA
  6
CONTINUOUS
 62
     7
 10
46.999999999999993
 20
-135.0
 30
0.0
 40
3.0
 50
0.0
 51
90.0
  0
ARC
  5
9F
  8
DATA
  6
CONTINUOUS
 62
     7
 10
46.999999999999993
 20
-172.0
 30
0.0
 40
3.0
 50
270.0
 51
0.0
  0
CIRCLE
  5
A0
  8
DATA
  6
CONTINUOUS
 62
     7
 10
-136.9785876470265
 20
-154.5446817496678
 30
0.0
 40
4.5
  0
ARC
  5
A1
  8
DATA
  6
CONTINUOUS
 62
     7
 10
-136.97858764703341
 20
-154.54468174966871
 30
0.0
 40
7.0000000000069393
 50
14.43255865730276
 51
165.5674413426967
  0
ARC
  5
A2
  8
DATA
  6
CONTINUOUS
 62
     7
 10
-136.97858764703341
 20
-154.54468174966871
 30
0.0
 40
7.000000000006926
 50
193.67852807348339
 51
346.32147192651672
  0
CIRCLE
  5
A3
  8
DATA
  6
CONTINUOUS
 62
     7
 10
-118.9897901553753
 20
-154.4765875928029
 30
0.0
 40
5.0
  0
ARC
  5
A4
  8
DATA
  6
CONTINUOUS
 62
     7
 10
-118.9897901553753
 20
-154.4765875928031
 30
0.0
 40
6.9999999999999982
 50
194.2528658642826
 51
166.14222970384239
  0
TEXT
  5
A5
  8
DATA
 62
     7
 10
-142.19477623897629
 20
-169.49717178595409
 30
0.0
 40
2.7147352430555549
  1
ON/OFF
 41
0.7
 11
-142.19477623897629
 21
-166.78243654289861
 31
0.0
 73
     3
  0
LINE
  5
A6
  8
DATA
  6
CONTINUOUS
 62
     7
 10
-150.0
 20
-28.0
 30
0.0
 11
50.0
 21
-28.0
 31
0.0
  0
ARC
  5
A7
  8
DATA
  6
CONTINUOUS
 62
     7
 10
-42.600000000000001
 20
171.69999999999999
 30
0.0
 40
221.82346584615439
 50
259.16464996031362
 51
268.08826605585369
  0
ARC
  5
A8
  8
DATA
  6
CONTINUOUS
 62
     7
 10
-141.5
 20
-243.1149999999997
 30
0.0
 40
203.29277710976331
 50
84.523995598686355
 51
90.676428681728027
  0
ARC
  5
A9
  8
DATA
  6
CONTINUOUS
 62
     7
 10
-137.07057975001621
 20
-279.7362264683901
 30
0.0
 40
239.45466105225901
 50
77.268754360175663
 51
86.415560266646978
  0
ARC
  5
AA
  8
DATA
  6
CONTINUOUS
 62
     7
 10
-57.399999999999963
 20
171.69999999999999
 30
0.0
 40
221.82346584615439
 50
271.91173394414642
 51
280.83535003968638
  0
ARC
  5
AB
  8
DATA
  6
CONTINUOUS
 62
     7
 10
41.500000000000028
 20
-243.1149999999997
 30
0.0
 40
203.29277710976331
 50
89.323571318272656
 51
95.476004401313645
  0
ARC
  5
AC
  8
DATA
  6
CONTINUOUS
 62
     7
 10
37.07057975001625
 20
-279.7362264683901
 30
0.0
 40
239.45466105225901
 50
93.584439733353008
 51
102.73124563982429
  0
LINE
  5
AD
  8
DATA
  6
CONTINUOUS
 62
     7
 10
-143.90000000000029
 20
-39.836390143970128
 30
0.0
 11
-150.0
 21
-39.836390143970128
 31
0.0
  0
LINE
  5
AE
  8
DATA
  6
CONTINUOUS
 62
     7
 10
43.899999999997974
 20
-39.836390143970107
 30
0.0
 11
50.0
 21
-39.836390143970107
 31
0.0
  0
LINE
  5
AF
  8
DATA
  6
CONTINUOUS
 62
     7
 10
50.0
 20
264.9999999998808
 30
0.0
 11
50.0
 21
247.39999999988089
 31
0.0
  0
LINE
  5
B0
  8
DATA
  6
CONTINUOUS
 62
     7
 10
50.0
 20
243.9999999998808
 30
0.0
 11
50.0
 21
227.99999999988091
 31
0.0
  0
LINE
  5
B1
  8
DATA
  6
CONTINUOUS
 62
     7
 10
-147.0
 20
267.99999999988091
 30
0.0
 11
-143.46000000000001
 21
267.99999999988091
 31
0.0
  0
LINE
  5
B2
  8
DATA
  6
CONTINUOUS
 62
     7
 10
43.460000000000001
 20
267.99999999988091
 30
0.0
 11
46.999999999999993
 21
267.99999999988091
 31
0.0
  0
LINE
  5
B3
  8
DATA
  6
CONTINUOUS
 62
     7
 10
-150.0
 20
227.99999999988091
 30
0.0
 11
-150.0
 21
243.9999999998808
 31
0.0
  0
LINE
  5
B4
  8
DATA
  6
CONTINUOUS
 62
     7
 10
-150.0
 20
247.39999999988089
 30
0.0
 11
-150.0
 21
264.9999999998808
 31
0.0
  0
ARC
  5
B5
  8
DATA
  6
CONTINUOUS
 62
     7
 10
46.999999999999993
 20
227.99999999988091
 30
0.0
 40
3.0
 50
270.0
 51
0.0
  0
ARC
  5
B6
  8
DATA
  6
CONTINUOUS
 62
     7
 10
46.999999999999993
 20
264.9999999998808
 30
0.0
 40
3.0
 50
0.0
 51
90.0
  0
ARC
  5
B7
  8
DATA
  6
CONTINUOUS
 62
     7
 10
-147.0
 20
227.99999999988091
 30
0.0
 40
3.0
 50
180.0
 51
270.0
  0
ARC
  5
B8
  8
DATA
  6
CONTINUOUS
 62
     7
 10
-147.0
 20
264.9999999998808
 30
0.0
 40
3.0
 50
90.0
 51
180.0
  0
LINE
  5
B9
  8
DATA
  6
CONTINUOUS
 62
     7
 10
5.0
 20
135.99999999999989
 30
0.0
 11
5.0
 21
-28.0
 31
0.0
  0
LINE
  5
BA
  8
DATA
  6
CONTINUOUS
 62
     7
 10
-105.0
 20
-28.0
 30
0.0
 11
-105.0
 21
135.99999999999989
 31
0.0
  0
CIRCLE
  5
BB
  8
DATA
  6
CONTINUOUS
 62
     7
 10
33.567359074816878
 20
239.55284398051521
 30
0.0
 40
3.5999999999999939
  0
CIRCLE
  5
BC
  8
DATA
  6
CONTINUOUS
 62
     7
 10
33.567359074816878
 20
239.55284398051521
 30
0.0
 40
0.5
  0
TEXT
  5
BD
  8
DATA
 62
     7
 10
39.298107633977743
 20
232.48473768756091
 30
0.0
 40
1.5202517361111101
  1
DC IN 12v/2A 
 50
180.0
 41
0.7
 11
39.298107633977743
 21
230.96448595144969
 31
0.0
 73
     3
  0
ARC
  5
BE
  8
DATA
  6
CONTINUOUS
 62
     7
 10
25.409239046571631
 20
239.426997072803
 30
0.0
 40
1.425729287066815
 50
0.0
 51
180.0
  0
CIRCLE
  5
BF
  8
DATA
  6
CONTINUOUS
 62
     7
 10
25.409239046571631
 20
239.426997072803
 30
0.0
 40
0.8481886582595022
  0
TEXT
  5
C0
  8
DATA
 62
     7
 10
24.40051656793915
 20
236.4028772347778
 30
0.0
 40
2.1717881944444439
  1
+
 50
270.0
 41
0.7
 11
26.572304762383599
 21
236.4028772347778
 31
0.0
 73
     3
  0
LINE
  5
C1
  8
DATA
  6
CONTINUOUS
 62
     7
 10
25.409239046571631
 20
238.57880841454349
 30
0.0
 11
25.409239046571631
 21
237.27512545853691
 31
0.0
  0
LINE
  5
C2
  8
DATA
  6
CONTINUOUS
 62
     7
 10
25.409239046571631
 20
240.85272635986991
 30
0.0
 11
25.409239046571631
 21
242.13358667242949
 31
0.0
  0
TEXT
  5
C3
  8
DATA
 62
     7
 10
24.392127935460511
 20
244.67242257666049
 30
0.0
 40
2.1717881944444439
  1
-
 50
270.0
 41
0.7
 11
26.56391612990495
 21
244.67242257666049
 31
0.0
 73
     3
  0
LINE
  5
C4
  8
DATA
  6
CONTINUOUS
 62
     7
 10
43.460000000000001
 20
230.19999999988079
 30
0.0
 11
43.460000000000001
 21
267.99999999988091
 31
0.0
  0
LINE
  5
C5
  8
DATA
  6
CONTINUOUS
 62
     7
 10
-143.46000000000001
 20
230.19999999988079
 30
0.0
 11
-143.46000000000001
 21
267.99999999988091
 31
0.0
  0
LINE
  5
C6
  8
DATA
  6
CONTINUOUS
 62
     7
 10
43.460000000000001
 20
265.99999999988091
 30
0.0
 11
-143.46000000000001
 21
265.99999999988091
 31
0.0
  0
LINE
  5
C7
  8
DATA
  6
CONTINUOUS
 62
     7
 10
43.460000000000001
 20
230.19999999988079
 30
0.0
 11
48.926136028426598
 21
225.69999999988079
 31
0.0
  0
LINE
  5
C8
  8
DATA
  6
CONTINUOUS
 62
     7
 10
-143.46000000000009
 20
230.19999999988079
 30
0.0
 11
-148.9261360284267
 21
225.69999999988079
 31
0.0
  0
LINE
  5
C9
  8
DATA
  6
CONTINUOUS
 62
     7
 10
50.0
 20
243.9999999998808
 30
0.0
 11
43.460000000000001
 21
243.9999999998808
 31
0.0
  0
LINE
  5
CA
  8
DATA
  6
CONTINUOUS
 62
     7
 10
-143.46000000000001
 20
243.9999999998808
 30
0.0
 11
-150.0
 21
243.9999999998808
 31
0.0
  0
LINE
  5
CB
  8
DATA
  6
CONTINUOUS
 62
     7
 10
171.99999999999989
 20
-132.0
 30
0.0
 11
336.0
 21
-132.0
 31
0.0
  0
LINE
  5
CC
  8
DATA
  6
CONTINUOUS
 62
     7
 10
172.0
 20
-132.0
 30
0.0
 11
172.0
 21
-175.0
 31
0.0
  0
CIRCLE
  5
CD
  8
DATA
  6
CONTINUOUS
 62
     7
 10
310.01097071260762
 20
-144.39999999999989
 30
0.0
 40
6.0
  0
CIRCLE
  5
CE
  8
DATA
  6
CONTINUOUS
 62
     7
 10
194.01047867004769
 20
-144.39999999999989
 30
0.0
 40
6.0
  0
CIRCLE
  5
CF
  8
DATA
  6
CONTINUOUS
 62
     7
 10
194.01047867004769
 20
-144.39999999999989
 30
0.0
 40
2.6999999999999882
  0
LINE
  5
D0
  8
DATA
  6
CONTINUOUS
 62
     7
 10
192.1860518194085
 20
-144.39999999999989
 30
0.0
 11
195.8349055206869
 21
-144.39999999999989
 31
0.0
  0
LINE
  5
D1
  8
DATA
  6
CONTINUOUS
 62
     7
 10
194.01047867004769
 20
-146.22442685063919
 30
0.0
 11
194.01047867004769
 21
-142.57557314936071
 31
0.0
  0
CIRCLE
  5
D2
  8
DATA
  6
CONTINUOUS
 62
     7
 10
310.01097071260762
 20
-144.39999999999989
 30
0.0
 40
2.6999999999999882
  0
LINE
  5
D3
  8
DATA
  6
CONTINUOUS
 62
     7
 10
308.1865438619684
 20
-144.39999999999989
 30
0.0
 11
311.83539756324677
 21
-144.39999999999989
 31
0.0
  0
LINE
  5
D4
  8
DATA
  6
CONTINUOUS
 62
     7
 10
310.01097071260762
 20
-146.22442685063919
 30
0.0
 11
310.01097071260762
 21
-142.57557314936071
 31
0.0
  0
LINE
  5
D5
  8
DATA
  6
CONTINUOUS
 62
     7
 10
267.99982703011312
 20
-170.19999999999999
 30
0.0
 11
267.99982703011312
 21
-173.05000000000001
 31
0.0
  0
LINE
  5
D6
  8
DATA
  6
CONTINUOUS
 62
     7
 10
247.9998270301131
 20
-170.19999999999999
 30
0.0
 11
247.9998270301131
 21
-173.05000000000001
 31
0.0
  0
LINE
  5
D7
  8
DATA
  6
CONTINUOUS
 62
     7
 10
247.9998270301131
 20
-170.19999999999999
 30
0.0
 11
267.99982703011312
 21
-170.19999999999999
 31
0.0
  0
LINE
  5
D8
  8
DATA
  6
CONTINUOUS
 62
     7
 10
247.9998270301131
 20
-173.05000000000001
 30
0.0
 11
267.99982703011312
 21
-173.05000000000001
 31
0.0
  0
LINE
  5
D9
  8
DATA
  6
CONTINUOUS
 62
     7
 10
204.00079921879421
 20
-170.19999999999999
 30
0.0
 11
204.00079921879421
 21
-173.05000000000001
 31
0.0
  0
LINE
  5
DA
  8
DATA
  6
CONTINUOUS
 62
     7
 10
184.00079921879421
 20
-170.19999999999999
 30
0.0
 11
184.00079921879421
 21
-173.05000000000001
 31
0.0
  0
LINE
  5
DB
  8
DATA
  6
CONTINUOUS
 62
     7
 10
184.00079921879421
 20
-170.19999999999999
 30
0.0
 11
204.00079921879421
 21
-170.19999999999999
 31
0.0
  0
LINE
  5
DC
  8
DATA
  6
CONTINUOUS
 62
     7
 10
184.00079921879421
 20
-173.05000000000001
 30
0.0
 11
204.00079921879421
 21
-173.05000000000001
 31
0.0
  0
LINE
  5
DD
  8
DATA
  6
CONTINUOUS
 62
     7
 10
172.0
 20
-175.0
 30
0.0
 11
152.79592833558789
 21
-173.69063147742639
 31
0.0
  0
LINE
  5
DE
  8
DATA
  6
CONTINUOUS
 62
     7
 10
172.0
 20
-132.0
 30
0.0
 11
162.95739524378189
 21
-132.53433573559471
 31
0.0
  0
ARC
  5
DF
  8
DATA
  6
CONTINUOUS
 62
     7
 10
369.0493716636966
 20
-210.5791147686821
 30
0.0
 40
222.165451810783
 50
159.97468028537341
 51
164.92563850963691
  0
ARC
  5
E0
  8
DATA
  6
CONTINUOUS
 62
     7
 10
369.0493716636966
 20
-210.5791147686821
 30
0.0
 40
222.16545181078311
 50
165.83184402409711
 51
169.98433585214971
  0
ARC
  5
E1
  8
DATA
  6
CONTINUOUS
 62
     7
 10
153.0
 20
-136.12796031191661
 30
0.0
 40
3.000000000000008
 50
93.381727324276312
 51
180.0
  0
ARC
  5
E2
  8
DATA
  6
CONTINUOUS
 62
     7
 10
153.0
 20
-170.69758039938171
 30
0.0
 40
3.0
 50
180.0
 51
266.09950625761797
  0
ARC
  5
E3
  8
DATA
  6
CONTINUOUS
 62
     7
 10
163.13435928446799
 20
-135.52911180874341
 30
0.0
 40
3.0000000000000662
 50
93.381727324276511
 51
159.97468028537199
  0
LINE
  5
E4
  8
DATA
  6
CONTINUOUS
 62
     7
 10
152.8230359593139
 20
-133.1331842387678
 30
0.0
 11
162.95739524378189
 21
-132.53433573559471
 31
0.0
  0
LINE
  5
E5
  8
DATA
  6
CONTINUOUS
 62
     7
 10
-150.0
 20
-39.836390143970107
 30
0.0
 11
-150.0
 21
-44.0
 31
0.0
  0
LINE
  5
E6
  8
DATA
  6
CONTINUOUS
 62
     7
 10
50.0
 20
-39.836390143970107
 30
0.0
 11
50.0
 21
-44.0
 31
0.0
  0
LINE
  5
E7
  8
DATA
  6
CONTINUOUS
 62
     7
 10
-150.0
 20
-44.0
 30
0.0
 11
-61.999999999999993
 21
-49.273505199152787
 31
0.0
  0
LINE
  5
E8
  8
DATA
  6
CONTINUOUS
 62
     7
 10
50.0
 20
-44.0
 30
0.0
 11
-38.000000000000043
 21
-49.273505199152787
 31
0.0
  0
LINE
  5
E9
  8
DATA
  6
CONTINUOUS
 62
     7
 10
-147.0
 20
224.9999999998808
 30
0.0
 11
47.200000000000003
 21
224.9999999998808
 31
0.0
  0
LINE
  5
EA
  8
DATA
  6
CONTINUOUS
 62
     7
 10
43.460000000000001
 20
230.19999999988079
 30
0.0
 11
-22.499999999999769
 21
230.19999999988079
 31
0.0
  0
LINE
  5
EB
  8
DATA
  6
CONTINUOUS
 62
     7
 10
-30.500000000000298
 20
230.19999999988079
 30
0.0
 11
-48.500000000000441
 21
230.19999999988079
 31
0.0
  0
LINE
  5
EC
  8
DATA
  6
CONTINUOUS
 62
     7
 10
-56.499999999999588
 20
230.19999999988079
 30
0.0
 11
-143.46000000000009
 21
230.19999999988079
 31
0.0
  0
LINE
  5
ED
  8
DATA
  6
CONTINUOUS
 62
     7
 10
-150.0
 20
135.99999999999989
 30
0.0
 11
50.0
 21
135.99999999999989
 31
0.0
  0
LINE
  5
EE
  8
DATA
  6
CONTINUOUS
 62
     7
 10
-125.77432032884469
 20
-156.19999999999999
 30
0.0
 11
-130.1771229893132
 21
-156.19999999999999
 31
0.0
  0
LINE
  5
EF
  8
DATA
  6
CONTINUOUS
 62
     7
 10
-143.7800523047537
 20
-156.19999999999999
 30
0.0
 11
-150.0
 21
-156.19999999999999
 31
0.0
  0
LINE
  5
F0
  8
DATA
  6
CONTINUOUS
 62
     7
 10
-150.0
 20
-152.80000000000001
 30
0.0
 11
-143.75767944405629
 21
-152.80000000000001
 31
0.0
  0
LINE
  5
F1
  8
DATA
  6
CONTINUOUS
 62
     7
 10
-130.19949585001049
 20
-152.80000000000001
 30
0.0
 11
-125.7860430967869
 21
-152.80000000000001
 31
0.0
  0
LINE
  5
F2
  8
DATA
  6
CONTINUOUS
 62
     7
 10
-149.5
 20
-156.19999999999999
 30
0.0
 11
-149.5
 21
-152.80000000000001
 31
0.0
  0
LINE
  5
F3
  8
DATA
  6
CONTINUOUS
 62
     7
 10
49.499999999999993
 20
-152.80000000000001
 30
0.0
 11
50.0
 21
-152.80000000000001
 31
0.0
  0
LINE
  5
F4
  8
DATA
  6
CONTINUOUS
 62
     7
 10
49.499999999999993
 20
-156.19999999999999
 30
0.0
 11
50.0
 21
-156.19999999999999
 31
0.0
  0
LINE
  5
F5
  8
DATA
  6
CONTINUOUS
 62
     7
 10
49.499999999999993
 20
-156.19999999999999
 30
0.0
 11
49.499999999999993
 21
-152.80000000000001
 31
0.0
  0
CIRCLE
  5
F6
  8
DATA
  6
CONTINUOUS
 62
     7
 10
29.999999999999989
 20
-154.5
 30
0.0
 40
11.5
  0
ARC
  5
F7
  8
DATA
  6
CONTINUOUS
 62
     7
 10
29.999999999999989
 20
-154.5
 30
0.0
 40
15.0
 50
6.5075035917447019
 51
353.49249640825508
  0
LINE
  5
F8
  8
DATA
  6
CONTINUOUS
 62
     7
 10
49.499999999999993
 20
-152.80000000000001
 30
0.0
 11
44.903355326905398
 21
-152.80000000000001
 31
0.0
  0
LINE
  5
F9
  8
DATA
  6
CONTINUOUS
 62
     7
 10
49.499999999999993
 20
-156.19999999999999
 30
0.0
 11
44.903355326905398
 21
-156.19999999999999
 31
0.0
  0
ARC
  5
FA
  8
DATA
  6
CONTINUOUS
 62
     7
 10
18.79372037914975
 20
-133.99869668246399
 30
0.0
 40
123.3099196064958
 50
179.07126774750691
 51
199.42095774361951
  0
ARC
  5
FB
  8
DATA
  6
CONTINUOUS
 62
     7
 10
32.793720379149761
 20
-133.99869668246399
 30
0.0
 40
123.3099196064958
 50
179.07126774750691
 51
199.42095774361951
  0
ARC
  5
FC
  8
DATA
  6
CONTINUOUS
 62
     7
 10
-118.7937203791497
 20
-133.99869668246399
 30
0.0
 40
123.3099196064958
 50
340.57904225638038
 51
0.9287322524930344
  0
ARC
  5
FD
  8
DATA
  6
CONTINUOUS
 62
     7
 10
-132.7937203791497
 20
-133.99869668246399
 30
0.0
 40
123.3099196064958
 50
340.57904225638038
 51
0.9287322524930344
  0
TEXT
  5
FE
  8
DATA
 62
     7
 10
-70.125370596153175
 20
-168.2060178209266
 30
0.0
 40
4.3435763888888879
  1
PS4000W
 41
0.7
 11
-70.125370596153175
 21
-163.86244143203771
 31
0.0
 73
     3
  0
TEXT
  5
FF
  8
DATA
 62
     7
 10
-69.921222746645114
 20
-172.72711111111099
 30
0.0
 40
2.1717881944444439
  1
WIDEBAND ANTENNA SPLITTER 
 41
0.7
 11
-69.921222746645114
 21
-170.5553229166666
 31
0.0
 73
     3
  0
LINE
  5
100
  8
DATA
  6
CONTINUOUS
 62
     7
 10
-82.500000000000014
 20
-158.0
 30
0.0
 11
-17.500000000000021
 21
-158.0
 31
0.0
  0
LINE
  5
101
  8
DATA
  6
CONTINUOUS
 62
     7
 10
-82.500000000000014
 20
-143.0
 30
0.0
 11
-17.500000000000021
 21
-143.0
 31
0.0
  0
LINE
  5
102
  8
DATA
  6
CONTINUOUS
 62
     7
 10
-82.500000000000014
 20
-158.0
 30
0.0
 11
-82.500000000000014
 21
-143.0
 31
0.0
  0
LINE
  5
103
  8
DATA
  6
CONTINUOUS
 62
     7
 10
-17.500000000000021
 20
-143.0
 30
0.0
 11
-17.500000000000021
 21
-158.0
 31
0.0
  0
CIRCLE
  5
104
  8
DATA
  6
CONTINUOUS
 62
     7
 10
-76.500000000000014
 20
-150.5
 30
0.0
 40
2.5
  0
TEXT
  5
105
  8
DATA
 62
     7
 10
-78.501684096235451
 20
-156.98098253634541
 30
0.0
 40
2.7147352430555549
  1
OK
 41
0.7
 11
-78.501684096235451
 21
-154.26624729328981
 31
0.0
 73
     3
  0
LINE
  5
106
  8
DATA
  6
CONTINUOUS
 62
     7
 10
-81.235593324382862
 20
-157.5
 30
0.0
 11
-81.235593324382862
 21
-143.5
 31
0.0
  0
LINE
  5
107
  8
DATA
  6
CONTINUOUS
 62
     7
 10
-18.76440667561716
 20
-157.5
 30
0.0
 11
-18.76440667561716
 21
-143.5
 31
0.0
  0
TEXT
  5
108
  8
DATA
 62
     7
 10
-75.476647913719233
 20
-147.0718374423011
 30
0.0
 40
2.7147352430555549
  1
ANTENNA A
 41
0.7
 11
-75.476647913719233
 21
-144.35710219924559
 31
0.0
 73
     3
  0
LINE
  5
109
  8
DATA
  6
CONTINUOUS
 62
     7
 10
-104.5
 20
-42.507029204646749
 30
0.0
 11
-104.5
 21
-28.0
 31
0.0
  0
LINE
  5
10A
  8
DATA
  6
CONTINUOUS
 62
     7
 10
-90.5
 20
-44.853881875614
 30
0.0
 11
-90.5
 21
-28.0
 31
0.0
  0
LINE
  5
10B
  8
DATA
  6
CONTINUOUS
 62
     7
 10
-9.5000000000000142
 20
-44.853881875614
 30
0.0
 11
-9.5000000000000142
 21
-28.0
 31
0.0
  0
LINE
  5
10C
  8
DATA
  6
CONTINUOUS
 62
     7
 10
4.4999999999999849
 20
-42.507029204646749
 30
0.0
 11
4.4999999999999849
 21
-28.0
 31
0.0
  0
LINE
  5
10D
  8
DATA
  6
CONTINUOUS
 62
     7
 10
-141.47858764702639
 20
-41.0
 30
0.0
 11
-141.47858764702639
 21
-39.822224017893006
 31
0.0
  0
LINE
  5
10E
  8
DATA
  6
CONTINUOUS
 62
     7
 10
-132.47858764702639
 20
-41.0
 30
0.0
 11
-132.47858764702639
 21
-40.022490674427807
 31
0.0
  0
LINE
  5
10F
  8
DATA
  6
CONTINUOUS
 62
     7
 10
-141.47858764702639
 20
-41.0
 30
0.0
 11
-132.47858764702639
 21
-41.0
 31
0.0
  0
LINE
  5
110
  8
DATA
  6
CONTINUOUS
 62
     7
 10
-123.9897901553753
 20
-41.86157316672233
 30
0.0
 11
-123.9897901553753
 21
-40.57772990830253
 31
0.0
  0
LINE
  5
111
  8
DATA
  6
CONTINUOUS
 62
     7
 10
-113.9897901553753
 20
-41.86157316672233
 30
0.0
 11
-113.9897901553753
 21
-41.396528030760649
 31
0.0
  0
LINE
  5
112
  8
DATA
  6
CONTINUOUS
 62
     7
 10
-123.9897901553753
 20
-41.86157316672233
 30
0.0
 11
-113.9897901553753
 21
-41.86157316672233
 31
0.0
  0
LINE
  5
113
  8
DATA
  6
CONTINUOUS
 62
     7
 10
18.51566284019837
 20
-41.483965468970901
 30
0.0
 11
18.51566284019837
 21
-41.00154160227774
 31
0.0
  0
LINE
  5
114
  8
DATA
  6
CONTINUOUS
 62
     7
 10
41.499999999999993
 20
-41.483965468970901
 30
0.0
 11
41.499999999999993
 21
-39.822222890236461
 31
0.0
  0
LINE
  5
115
  8
DATA
  6
CONTINUOUS
 62
     7
 10
18.51566284019837
 20
-41.483965468970901
 30
0.0
 11
41.499999999999993
 21
-41.483965468970901
 31
0.0
  0
CIRCLE
  5
116
  8
DATA
  6
CONTINUOUS
 62
     7
 10
33.567359074816878
 20
239.55284398051521
 30
0.0
 40
5.75
  0
POLYLINE
  5
117
  8
DATA
  6
CONTINUOUS
 62
     7
 66
     1
 10
0.0
 20
0.0
 30
0.0
 70
     1
  0
VERTEX
  5
39B
  8
DATA
  6
CONTINUOUS
 62
     7
 10
30.801851285398559
 20
244.3428439805152
 30
0.0
  0
VERTEX
  5
39C
  8
DATA
  6
CONTINUOUS
 62
     7
 10
28.03634349598024
 20
239.55284398051521
 30
0.0
  0
VERTEX
  5
39D
  8
DATA
  6
CONTINUOUS
 62
     7
 10
30.801851285398559
 20
234.76284398051521
 30
0.0
  0
VERTEX
  5
39E
  8
DATA
  6
CONTINUOUS
 62
     7
 10
36.332866864235193
 20
234.76284398051521
 30
0.0
  0
VERTEX
  5
39F
  8
DATA
  6
CONTINUOUS
 62
     7
 10
39.098374653653522
 20
239.55284398051521
 30
0.0
  0
VERTEX
  5
3A0
  8
DATA
  6
CONTINUOUS
 62
     7
 10
36.3328668642352
 20
244.3428439805152
 30
0.0
  0
SEQEND
  5
3A1
  8
DATA
  6
CONTINUOUS
 62
     7
  0
LINE
  5
120
  8
DATA
  6
CONTINUOUS
 62
     7
 10
50.0
 20
247.39999999988089
 30
0.0
 11
49.499999999999993
 21
247.39999999988089
 31
0.0
  0
LINE
  5
121
  8
DATA
  6
CONTINUOUS
 62
     7
 10
-149.5
 20
247.39999999988089
 30
0.0
 11
-150.0
 21
247.39999999988089
 31
0.0
  0
LINE
  5
122
  8
DATA
  6
CONTINUOUS
 62
     7
 10
-149.5
 20
243.9999999998808
 30
0.0
 11
-149.5
 21
247.39999999988089
 31
0.0
  0
LINE
  5
123
  8
DATA
  6
CONTINUOUS
 62
     7
 10
49.499999999999993
 20
243.9999999998808
 30
0.0
 11
49.499999999999993
 21
247.39999999988089
 31
0.0
  0
ARC
  5
124
  8
DATA
  6
CONTINUOUS
 62
     7
 10
-52.500000000000021
 20
230.08620858521809
 30
0.0
 40
4.0016182334214436
 50
178.37049752871829
 51
1.629502471281711
  0
ARC
  5
125
  8
DATA
  6
CONTINUOUS
 62
     7
 10
-26.500000000000011
 20
230.08620858521809
 30
0.0
 40
4.0016182334214436
 50
178.37049752871829
 51
1.629502471281711
  0
LINE
  5
126
  8
DATA
  6
CONTINUOUS
 62
     7
 10
336.0
 20
-132.0
 30
0.0
 11
336.0
 21
-175.0
 31
0.0
  0
LINE
  5
127
  8
DATA
  6
CONTINUOUS
 62
     7
 10
29.885536518797341
 20
141.99999999999989
 30
0.0
 11
37.085536518797333
 21
141.99999999999989
 31
0.0
  0
LINE
  5
128
  8
DATA
  6
CONTINUOUS
 62
     7
 10
29.885536518797341
 20
141.99999999999989
 30
0.0
 11
29.885536518797341
 21
139.99999999999989
 31
0.0
  0
LINE
  5
129
  8
DATA
  6
CONTINUOUS
 62
     7
 10
37.085536518797333
 20
141.99999999999989
 30
0.0
 11
37.085536518797333
 21
139.99999999999989
 31
0.0
  0
LINE
  5
12A
  8
DATA
  6
CONTINUOUS
 62
     7
 10
27.954520939960691
 20
139.99999999999989
 30
0.0
 11
27.954520939960691
 21
135.99999999999989
 31
0.0
  0
LINE
  5
12B
  8
DATA
  6
CONTINUOUS
 62
     7
 10
39.016552097633969
 20
139.99999999999989
 30
0.0
 11
39.016552097633969
 21
135.99999999999989
 31
0.0
  0
LINE
  5
12C
  8
DATA
  6
CONTINUOUS
 62
     7
 10
27.954520939960691
 20
139.99999999999989
 30
0.0
 11
39.016552097633969
 21
139.99999999999989
 31
0.0
  0
LINE
  5
12D
  8
DATA
  6
CONTINUOUS
 62
     7
 10
319.04952433281119
 20
-170.19999999999999
 30
0.0
 11
319.04952433281119
 21
-173.05000000000001
 31
0.0
  0
LINE
  5
12E
  8
DATA
  6
CONTINUOUS
 62
     7
 10
299.04952433281119
 20
-170.19999999999999
 30
0.0
 11
299.04952433281119
 21
-173.05000000000001
 31
0.0
  0
LINE
  5
12F
  8
DATA
  6
CONTINUOUS
 62
     7
 10
299.04952433281119
 20
-170.19999999999999
 30
0.0
 11
319.04952433281119
 21
-170.19999999999999
 31
0.0
  0
LINE
  5
130
  8
DATA
  6
CONTINUOUS
 62
     7
 10
299.04952433281119
 20
-173.05000000000001
 30
0.0
 11
319.04952433281119
 21
-173.05000000000001
 31
0.0
  0
LINE
  5
131
  8
DATA
  6
CONTINUOUS
 62
     7
 10
154.5288321462954
 20
-152.80000000000001
 30
0.0
 11
336.0
 21
-152.80000000000001
 31
0.0
  0
LINE
  5
132
  8
DATA
  6
CONTINUOUS
 62
     7
 10
153.64185123958541
 20
-156.19999999999999
 30
0.0
 11
336.0
 21
-156.19999999999999
 31
0.0
  0
LINE
  5
133
  8
DATA
  6
CONTINUOUS
 62
     7
 10
155.04405754109311
 20
-152.80000000000001
 30
0.0
 11
154.13947038512981
 21
-156.19999999999999
 31
0.0
  0
LINE
  5
134
  8
DATA
  6
CONTINUOUS
 62
     7
 10
-83.976350839953653
 20
-142.0000000000004
 30
0.0
 11
-85.210670924361281
 21
-159.2804811817073
 31
0.0
  0
ARC
  5
135
  8
DATA
  6
CONTINUOUS
 62
     7
 10
-50.093652081907358
 20
-379.97260508668268
 30
0.0
 40
240.3726233306754
 50
81.851089569437093
 51
98.103346639025162
  0
ARC
  5
136
  8
DATA
  6
CONTINUOUS
 62
     7
 10
-50.0
 20
85.936691327237895
 30
0.0
 40
247.73222043211399
 50
261.82876644005017
 51
278.17123355994971
  0
LINE
  5
137
  8
DATA
  6
CONTINUOUS
 62
     7
 10
-14.789329075638751
 20
-159.2804811817075
 30
0.0
 11
-16.02171915573896
 21
-142.02702006030441
 31
0.0
  0
TEXT
  5
138
  8
DATA
 62
     7
 10
5.3094906498209147
 20
-169.49717178595409
 30
0.0
 40
2.7147352430555549
  1
CLA
 41
0.7
 11
5.3094906498209147
 21
-166.78243654289861
 31
0.0
 73
     3
  0
CIRCLE
  5
139
  8
DATA
  6
CONTINUOUS
 62
     7
 10
-58.693061057330169
 20
-150.5
 30
0.0
 40
2.5
  0
TEXT
  5
13A
  8
DATA
 62
     7
 10
-63.301097529872941
 20
-156.98098253634541
 30
0.0
 40
2.7147352430555549
  1
ERROR
 41
0.7
 11
-63.301097529872941
 21
-154.26624729328981
 31
0.0
 73
     3
  0
LINE
  5
13B
  8
DATA
  6
CONTINUOUS
 62
     7
 10
-53.235593324382862
 20
-157.5
 30
0.0
 11
-53.235593324382862
 21
-143.5
 31
0.0
  0
LINE
  5
13C
  8
DATA
  6
CONTINUOUS
 62
     7
 10
-46.76440667561716
 20
-157.5
 30
0.0
 11
-46.76440667561716
 21
-143.5
 31
0.0
  0
CIRCLE
  5
13D
  8
DATA
  6
CONTINUOUS
 62
     7
 10
-42.030000000000022
 20
-150.5
 30
0.0
 40
2.5
  0
TEXT
  5
13E
  8
DATA
 62
     7
 10
-44.031684096235452
 20
-156.98098253634541
 30
0.0
 40
2.7147352430555549
  1
OK
 41
0.7
 11
-44.031684096235452
 21
-154.26624729328981
 31
0.0
 73
     3
  0
CIRCLE
  5
13F
  8
DATA
  6
CONTINUOUS
 62
     7
 10
-24.223061057330192
 20
-150.5
 30
0.0
 40
2.5
  0
TEXT
  5
140
  8
DATA
 62
     7
 10
-28.831097529872931
 20
-156.98098253634541
 30
0.0
 40
2.7147352430555549
  1
ERROR
 41
0.7
 11
-28.831097529872931
 21
-154.26624729328981
 31
0.0
 73
     3
  0
LINE
  5
141
  8
DATA
  6
CONTINUOUS
 62
     7
 10
40.999999999999993
 20
-175.0
 30
0.0
 11
40.999999999999993
 21
-176.0
 31
0.0
  0
LINE
  5
142
  8
DATA
  6
CONTINUOUS
 62
     7
 10
28.999999999999979
 20
-175.0
 30
0.0
 11
28.999999999999979
 21
-176.0
 31
0.0
  0
LINE
  5
143
  8
DATA
  6
CONTINUOUS
 62
     7
 10
28.999999999999979
 20
-176.0
 30
0.0
 11
40.999999999999993
 21
-176.0
 31
0.0
  0
CIRCLE
  5
144
  8
DATA
  6
CONTINUOUS
 62
     7
 10
26.045893379736711
 20
255.99999999988091
 30
0.0
 40
4.8499999999999934
  0
ARC
  5
145
  8
DATA
  6
CONTINUOUS
 62
     7
 10
26.045893379736711
 20
255.99999999988091
 30
0.0
 40
6.0000000000000009
 50
203.5564643091013
 51
336.44353569089873
  0
ARC
  5
146
  8
DATA
  6
CONTINUOUS
 62
     7
 10
26.045893379736711
 20
255.99999999988091
 30
0.0
 40
6.0000000000000009
 50
23.556464309101269
 51
156.44353569089881
  0
CIRCLE
  5
147
  8
DATA
  6
CONTINUOUS
 62
     7
 10
26.045893379736711
 20
255.99999999988091
 30
0.0
 40
8.0
  0
CIRCLE
  5
148
  8
DATA
  6
CONTINUOUS
 62
     7
 10
26.045893379736711
 20
255.99999999988091
 30
0.0
 40
0.5
  0
LINE
  5
149
  8
DATA
  6
CONTINUOUS
 62
     7
 10
20.545893379736711
 20
253.60208423822451
 30
0.0
 11
20.545893379736711
 21
258.39999999999998
 31
0.0
  0
LINE
  5
14A
  8
DATA
  6
CONTINUOUS
 62
     7
 10
31.545893379736711
 20
253.60208423822451
 30
0.0
 11
31.545893379736711
 21
258.39791576153721
 31
0.0
  0
CIRCLE
  5
14B
  8
DATA
  6
CONTINUOUS
 62
     7
 10
26.045893379736711
 20
255.99999999988091
 30
0.0
 40
2.0
  0
POLYLINE
  5
14C
  8
DATA
  6
CONTINUOUS
 62
     7
 66
     1
 10
0.0
 20
0.0
 30
0.0
  0
VERTEX
  5
3A2
  8
DATA
  6
CONTINUOUS
 62
     7
 10
27.045893379736711
 20
251.25421239401399
 30
0.0
  0
VERTEX
  5
3A3
  8
DATA
  6
CONTINUOUS
 62
     7
 10
27.045893379736711
 20
250.4999999998808
 30
0.0
  0
VERTEX
  5
3A4
  8
DATA
  6
CONTINUOUS
 62
     7
 10
25.045893379736711
 20
250.4999999998808
 30
0.0
  0
VERTEX
  5
3A5
  8
DATA
  6
CONTINUOUS
 62
     7
 10
25.045893379736711
 20
251.25421239401399
 30
0.0
  0
SEQEND
  5
3A6
  8
DATA
  6
CONTINUOUS
 62
     7
  0
POLYLINE
  5
153
  8
DATA
  6
CONTINUOUS
 62
     7
 66
     1
 10
0.0
 20
0.0
 30
0.0
  0
VERTEX
  5
3A7
  8
DATA
  6
CONTINUOUS
 62
     7
 10
25.045893379736711
 20
260.74578760574769
 30
0.0
  0
VERTEX
  5
3A8
  8
DATA
  6
CONTINUOUS
 62
     7
 10
25.045893379736711
 20
261.49999999988091
 30
0.0
  0
VERTEX
  5
3A9
  8
DATA
  6
CONTINUOUS
 62
     7
 10
27.045893379736711
 20
261.49999999988091
 30
0.0
  0
VERTEX
  5
3AA
  8
DATA
  6
CONTINUOUS
 62
     7
 10
27.045893379736711
 20
260.74578760574769
 30
0.0
  0
SEQEND
  5
3AB
  8
DATA
  6
CONTINUOUS
 62
     7
  0
CIRCLE
  5
15A
  8
DATA
  6
CONTINUOUS
 62
     7
 10
-2.9541066202632882
 20
255.99999999988091
 30
0.0
 40
4.8499999999999934
  0
ARC
  5
15B
  8
DATA
  6
CONTINUOUS
 62
     7
 10
-2.9541066202632882
 20
255.99999999988091
 30
0.0
 40
6.0000000000000009
 50
203.5564643091013
 51
336.44353569089873
  0
ARC
  5
15C
  8
DATA
  6
CONTINUOUS
 62
     7
 10
-2.9541066202632882
 20
255.99999999988091
 30
0.0
 40
6.0000000000000009
 50
23.556464309101269
 51
156.44353569089881
  0
CIRCLE
  5
15D
  8
DATA
  6
CONTINUOUS
 62
     7
 10
-2.9541066202632882
 20
255.99999999988091
 30
0.0
 40
8.0
  0
CIRCLE
  5
15E
  8
DATA
  6
CONTINUOUS
 62
     7
 10
-2.9541066202632882
 20
255.99999999988091
 30
0.0
 40
0.5
  0
LINE
  5
15F
  8
DATA
  6
CONTINUOUS
 62
     7
 10
-8.4541066202632891
 20
253.60208423822451
 30
0.0
 11
-8.4541066202632891
 21
258.39999999999998
 31
0.0
  0
LINE
  5
160
  8
DATA
  6
CONTINUOUS
 62
     7
 10
2.54589337973671
 20
253.60208423822451
 30
0.0
 11
2.54589337973671
 21
258.39791576153721
 31
0.0
  0
CIRCLE
  5
161
  8
DATA
  6
CONTINUOUS
 62
     7
 10
-2.9541066202632882
 20
255.99999999988091
 30
0.0
 40
2.0
  0
POLYLINE
  5
162
  8
DATA
  6
CONTINUOUS
 62
     7
 66
     1
 10
0.0
 20
0.0
 30
0.0
  0
VERTEX
  5
3AC
  8
DATA
  6
CONTINUOUS
 62
     7
 10
-1.954106620263288
 20
251.25421239401399
 30
0.0
  0
VERTEX
  5
3AD
  8
DATA
  6
CONTINUOUS
 62
     7
 10
-1.954106620263288
 20
250.4999999998808
 30
0.0
  0
VERTEX
  5
3AE
  8
DATA
  6
CONTINUOUS
 62
     7
 10
-3.9541066202632882
 20
250.4999999998808
 30
0.0
  0
VERTEX
  5
3AF
  8
DATA
  6
CONTINUOUS
 62
     7
 10
-3.9541066202632882
 20
251.25421239401399
 30
0.0
  0
SEQEND
  5
3B0
  8
DATA
  6
CONTINUOUS
 62
     7
  0
POLYLINE
  5
169
  8
DATA
  6
CONTINUOUS
 62
     7
 66
     1
 10
0.0
 20
0.0
 30
0.0
  0
VERTEX
  5
3B1
  8
DATA
  6
CONTINUOUS
 62
     7
 10
-3.9541066202632882
 20
260.74578760574769
 30
0.0
  0
VERTEX
  5
3B2
  8
DATA
  6
CONTINUOUS
 62
     7
 10
-3.9541066202632882
 20
261.49999999988091
 30
0.0
  0
VERTEX
  5
3B3
  8
DATA
  6
CONTINUOUS
 62
     7
 10
-1.954106620263288
 20
261.49999999988091
 30
0.0
  0
VERTEX
  5
3B4
  8
DATA
  6
CONTINUOUS
 62
     7
 10
-1.954106620263288
 20
260.74578760574769
 30
0.0
  0
SEQEND
  5
3B5
  8
DATA
  6
CONTINUOUS
 62
     7
  0
CIRCLE
  5
170
  8
DATA
  6
CONTINUOUS
 62
     7
 10
-31.954106620263151
 20
255.99999999988091
 30
0.0
 40
4.8499999999999801
  0
ARC
  5
171
  8
DATA
  6
CONTINUOUS
 62
     7
 10
-31.954106620263151
 20
255.99999999988091
 30
0.0
 40
6.0000000000000009
 50
203.5564643091013
 51
336.44353569089839
  0
ARC
  5
172
  8
DATA
  6
CONTINUOUS
 62
     7
 10
-31.954106620263151
 20
255.99999999988091
 30
0.0
 40
5.9999999999999361
 50
23.55646430910155
 51
156.4435356908987
  0
CIRCLE
  5
173
  8
DATA
  6
CONTINUOUS
 62
     7
 10
-31.954106620263151
 20
255.99999999988091
 30
0.0
 40
7.9999999999998579
  0
CIRCLE
  5
174
  8
DATA
  6
CONTINUOUS
 62
     7
 10
-31.954106620263151
 20
255.99999999988091
 30
0.0
 40
0.5
  0
LINE
  5
175
  8
DATA
  6
CONTINUOUS
 62
     7
 10
-37.454106620263147
 20
253.60208423822451
 30
0.0
 11
-37.454106620263147
 21
258.39999999999998
 31
0.0
  0
LINE
  5
176
  8
DATA
  6
CONTINUOUS
 62
     7
 10
-26.454106620263222
 20
253.60208423822451
 30
0.0
 11
-26.454106620263222
 21
258.39791576153721
 31
0.0
  0
CIRCLE
  5
177
  8
DATA
  6
CONTINUOUS
 62
     7
 10
-31.954106620263151
 20
255.99999999988091
 30
0.0
 40
2.0
  0
POLYLINE
  5
178
  8
DATA
  6
CONTINUOUS
 62
     7
 66
     1
 10
0.0
 20
0.0
 30
0.0
  0
VERTEX
  5
3B6
  8
DATA
  6
CONTINUOUS
 62
     7
 10
-30.954106620263151
 20
251.25421239401399
 30
0.0
  0
VERTEX
  5
3B7
  8
DATA
  6
CONTINUOUS
 62
     7
 10
-30.954106620263151
 20
250.4999999998808
 30
0.0
  0
VERTEX
  5
3B8
  8
DATA
  6
CONTINUOUS
 62
     7
 10
-32.954106620263147
 20
250.4999999998808
 30
0.0
  0
VERTEX
  5
3B9
  8
DATA
  6
CONTINUOUS
 62
     7
 10
-32.954106620263147
 20
251.25421239401399
 30
0.0
  0
SEQEND
  5
3BA
  8
DATA
  6
CONTINUOUS
 62
     7
  0
POLYLINE
  5
17F
  8
DATA
  6
CONTINUOUS
 62
     7
 66
     1
 10
0.0
 20
0.0
 30
0.0
  0
VERTEX
  5
3BB
  8
DATA
  6
CONTINUOUS
 62
     7
 10
-32.954106620263147
 20
260.74578760574769
 30
0.0
  0
VERTEX
  5
3BC
  8
DATA
  6
CONTINUOUS
 62
     7
 10
-32.954106620263147
 20
261.49999999988091
 30
0.0
  0
VERTEX
  5
3BD
  8
DATA
  6
CONTINUOUS
 62
     7
 10
-30.954106620263151
 20
261.49999999988091
 30
0.0
  0
VERTEX
  5
3BE
  8
DATA
  6
CONTINUOUS
 62
     7
 10
-30.954106620263151
 20
260.74578760574769
 30
0.0
  0
SEQEND
  5
3BF
  8
DATA
  6
CONTINUOUS
 62
     7
  0
CIRCLE
  5
186
  8
DATA
  6
CONTINUOUS
 62
     7
 10
-60.954106620263133
 20
255.99999999988091
 30
0.0
 40
4.8500000000000227
  0
ARC
  5
187
  8
DATA
  6
CONTINUOUS
 62
     7
 10
-60.954106620263133
 20
255.99999999988091
 30
0.0
 40
6.0000000000000009
 50
203.5564643091013
 51
336.44353569089873
  0
ARC
  5
188
  8
DATA
  6
CONTINUOUS
 62
     7
 10
-60.954106620263133
 20
255.99999999988091
 30
0.0
 40
6.0000000000000009
 50
23.556464309101269
 51
156.44353569089881
  0
CIRCLE
  5
189
  8
DATA
  6
CONTINUOUS
 62
     7
 10
-60.954106620263133
 20
255.99999999988091
 30
0.0
 40
8.0
  0
CIRCLE
  5
18A
  8
DATA
  6
CONTINUOUS
 62
     7
 10
-60.954106620263133
 20
255.99999999988091
 30
0.0
 40
0.5
  0
LINE
  5
18B
  8
DATA
  6
CONTINUOUS
 62
     7
 10
-66.454106620263133
 20
253.60208423822451
 30
0.0
 11
-66.454106620263133
 21
258.39999999999998
 31
0.0
  0
LINE
  5
18C
  8
DATA
  6
CONTINUOUS
 62
     7
 10
-55.45410662026314
 20
253.60208423822451
 30
0.0
 11
-55.45410662026314
 21
258.39791576153721
 31
0.0
  0
CIRCLE
  5
18D
  8
DATA
  6
CONTINUOUS
 62
     7
 10
-60.954106620263133
 20
255.99999999988091
 30
0.0
 40
2.0
  0
POLYLINE
  5
18E
  8
DATA
  6
CONTINUOUS
 62
     7
 66
     1
 10
0.0
 20
0.0
 30
0.0
  0
VERTEX
  5
3C0
  8
DATA
  6
CONTINUOUS
 62
     7
 10
-59.95410662026314
 20
251.25421239401399
 30
0.0
  0
VERTEX
  5
3C1
  8
DATA
  6
CONTINUOUS
 62
     7
 10
-59.95410662026314
 20
250.4999999998808
 30
0.0
  0
VERTEX
  5
3C2
  8
DATA
  6
CONTINUOUS
 62
     7
 10
-61.95410662026314
 20
250.4999999998808
 30
0.0
  0
VERTEX
  5
3C3
  8
DATA
  6
CONTINUOUS
 62
     7
 10
-61.95410662026314
 20
251.25421239401399
 30
0.0
  0
SEQEND
  5
3C4
  8
DATA
  6
CONTINUOUS
 62
     7
  0
POLYLINE
  5
195
  8
DATA
  6
CONTINUOUS
 62
     7
 66
     1
 10
0.0
 20
0.0
 30
0.0
  0
VERTEX
  5
3C5
  8
DATA
  6
CONTINUOUS
 62
     7
 10
-61.95410662026314
 20
260.74578760574769
 30
0.0
  0
VERTEX
  5
3C6
  8
DATA
  6
CONTINUOUS
 62
     7
 10
-61.95410662026314
 20
261.49999999988091
 30
0.0
  0
VERTEX
  5
3C7
  8
DATA
  6
CONTINUOUS
 62
     7
 10
-59.95410662026314
 20
261.49999999988091
 30
0.0
  0
VERTEX
  5
3C8
  8
DATA
  6
CONTINUOUS
 62
     7
 10
-59.95410662026314
 20
260.74578760574769
 30
0.0
  0
SEQEND
  5
3C9
  8
DATA
  6
CONTINUOUS
 62
     7
  0
CIRCLE
  5
19C
  8
DATA
  6
CONTINUOUS
 62
     7
 10
-89.954106620263147
 20
255.99999999988091
 30
0.0
 40
4.8500000000000227
  0
ARC
  5
19D
  8
DATA
  6
CONTINUOUS
 62
     7
 10
-89.954106620263147
 20
255.99999999988091
 30
0.0
 40
6.0000000000000009
 50
203.5564643091013
 51
336.44353569089873
  0
ARC
  5
19E
  8
DATA
  6
CONTINUOUS
 62
     7
 10
-89.954106620263147
 20
255.99999999988091
 30
0.0
 40
6.0000000000000009
 50
23.556464309101269
 51
156.44353569089881
  0
CIRCLE
  5
19F
  8
DATA
  6
CONTINUOUS
 62
     7
 10
-89.954106620263147
 20
255.99999999988091
 30
0.0
 40
8.0
  0
CIRCLE
  5
1A0
  8
DATA
  6
CONTINUOUS
 62
     7
 10
-89.954106620263147
 20
255.99999999988091
 30
0.0
 40
0.5
  0
LINE
  5
1A1
  8
DATA
  6
CONTINUOUS
 62
     7
 10
-95.454106620263133
 20
253.60208423822451
 30
0.0
 11
-95.454106620263133
 21
258.39999999999998
 31
0.0
  0
LINE
  5
1A2
  8
DATA
  6
CONTINUOUS
 62
     7
 10
-84.454106620263133
 20
253.60208423822451
 30
0.0
 11
-84.454106620263133
 21
258.39791576153721
 31
0.0
  0
CIRCLE
  5
1A3
  8
DATA
  6
CONTINUOUS
 62
     7
 10
-89.954106620263147
 20
255.99999999988091
 30
0.0
 40
2.0
  0
POLYLINE
  5
1A4
  8
DATA
  6
CONTINUOUS
 62
     7
 66
     1
 10
0.0
 20
0.0
 30
0.0
  0
VERTEX
  5
3CA
  8
DATA
  6
CONTINUOUS
 62
     7
 10
-88.954106620263119
 20
251.25421239401399
 30
0.0
  0
VERTEX
  5
3CB
  8
DATA
  6
CONTINUOUS
 62
     7
 10
-88.954106620263119
 20
250.4999999998808
 30
0.0
  0
VERTEX
  5
3CC
  8
DATA
  6
CONTINUOUS
 62
     7
 10
-90.954106620263133
 20
250.4999999998808
 30
0.0
  0
VERTEX
  5
3CD
  8
DATA
  6
CONTINUOUS
 62
     7
 10
-90.954106620263133
 20
251.25421239401399
 30
0.0
  0
SEQEND
  5
3CE
  8
DATA
  6
CONTINUOUS
 62
     7
  0
POLYLINE
  5
1AB
  8
DATA
  6
CONTINUOUS
 62
     7
 66
     1
 10
0.0
 20
0.0
 30
0.0
  0
VERTEX
  5
3CF
  8
DATA
  6
CONTINUOUS
 62
     7
 10
-90.954106620263133
 20
260.74578760574769
 30
0.0
  0
VERTEX
  5
3D0
  8
DATA
  6
CONTINUOUS
 62
     7
 10
-90.954106620263133
 20
261.49999999988091
 30
0.0
  0
VERTEX
  5
3D1
  8
DATA
  6
CONTINUOUS
 62
     7
 10
-88.954106620263119
 20
261.49999999988091
 30
0.0
  0
VERTEX
  5
3D2
  8
DATA
  6
CONTINUOUS
 62
     7
 10
-88.954106620263119
 20
260.74578760574769
 30
0.0
  0
SEQEND
  5
3D3
  8
DATA
  6
CONTINUOUS
 62
     7
  0
CIRCLE
  5
1B2
  8
DATA
  6
CONTINUOUS
 62
     7
 10
-118.9541066202631
 20
255.99999999988091
 30
0.0
 40
4.8500000000000227
  0
ARC
  5
1B3
  8
DATA
  6
CONTINUOUS
 62
     7
 10
-118.9541066202631
 20
255.99999999988091
 30
0.0
 40
6.0000000000000009
 50
203.5564643091013
 51
336.44353569089873
  0
ARC
  5
1B4
  8
DATA
  6
CONTINUOUS
 62
     7
 10
-118.9541066202631
 20
255.99999999988091
 30
0.0
 40
6.0000000000000009
 50
23.556464309101269
 51
156.44353569089881
  0
CIRCLE
  5
1B5
  8
DATA
  6
CONTINUOUS
 62
     7
 10
-118.9541066202631
 20
255.99999999988091
 30
0.0
 40
8.0
  0
CIRCLE
  5
1B6
  8
DATA
  6
CONTINUOUS
 62
     7
 10
-118.9541066202631
 20
255.99999999988091
 30
0.0
 40
0.5
  0
LINE
  5
1B7
  8
DATA
  6
CONTINUOUS
 62
     7
 10
-124.4541066202631
 20
253.60208423822451
 30
0.0
 11
-124.4541066202631
 21
258.39999999999998
 31
0.0
  0
LINE
  5
1B8
  8
DATA
  6
CONTINUOUS
 62
     7
 10
-113.4541066202631
 20
253.60208423822451
 30
0.0
 11
-113.4541066202631
 21
258.39791576153721
 31
0.0
  0
CIRCLE
  5
1B9
  8
DATA
  6
CONTINUOUS
 62
     7
 10
-118.9541066202631
 20
255.99999999988091
 30
0.0
 40
2.0
  0
POLYLINE
  5
1BA
  8
DATA
  6
CONTINUOUS
 62
     7
 66
     1
 10
0.0
 20
0.0
 30
0.0
  0
VERTEX
  5
3D4
  8
DATA
  6
CONTINUOUS
 62
     7
 10
-117.9541066202631
 20
251.25421239401399
 30
0.0
  0
VERTEX
  5
3D5
  8
DATA
  6
CONTINUOUS
 62
     7
 10
-117.9541066202631
 20
250.4999999998808
 30
0.0
  0
VERTEX
  5
3D6
  8
DATA
  6
CONTINUOUS
 62
     7
 10
-119.9541066202631
 20
250.4999999998808
 30
0.0
  0
VERTEX
  5
3D7
  8
DATA
  6
CONTINUOUS
 62
     7
 10
-119.9541066202631
 20
251.25421239401399
 30
0.0
  0
SEQEND
  5
3D8
  8
DATA
  6
CONTINUOUS
 62
     7
  0
POLYLINE
  5
1C1
  8
DATA
  6
CONTINUOUS
 62
     7
 66
     1
 10
0.0
 20
0.0
 30
0.0
  0
VERTEX
  5
3D9
  8
DATA
  6
CONTINUOUS
 62
     7
 10
-119.9541066202631
 20
260.74578760574769
 30
0.0
  0
VERTEX
  5
3DA
  8
DATA
  6
CONTINUOUS
 62
     7
 10
-119.9541066202631
 20
261.49999999988091
 30
0.0
  0
VERTEX
  5
3DB
  8
DATA
  6
CONTINUOUS
 62
     7
 10
-117.9541066202631
 20
261.49999999988091
 30
0.0
  0
VERTEX
  5
3DC
  8
DATA
  6
CONTINUOUS
 62
     7
 10
-117.9541066202631
 20
260.74578760574769
 30
0.0
  0
SEQEND
  5
3DD
  8
DATA
  6
CONTINUOUS
 62
     7
  0
CIRCLE
  5
1C8
  8
DATA
  6
CONTINUOUS
 62
     7
 10
11.545893379736709
 20
240.99999999988091
 30
0.0
 40
4.8499999999999934
  0
ARC
  5
1C9
  8
DATA
  6
CONTINUOUS
 62
     7
 10
11.545893379736709
 20
240.99999999988091
 30
0.0
 40
6.0000000000000009
 50
203.5564643091013
 51
336.44353569089873
  0
ARC
  5
1CA
  8
DATA
  6
CONTINUOUS
 62
     7
 10
11.545893379736709
 20
240.99999999988091
 30
0.0
 40
6.0000000000000009
 50
23.556464309101269
 51
156.44353569089881
  0
CIRCLE
  5
1CB
  8
DATA
  6
CONTINUOUS
 62
     7
 10
11.545893379736709
 20
240.99999999988091
 30
0.0
 40
8.0
  0
CIRCLE
  5
1CC
  8
DATA
  6
CONTINUOUS
 62
     7
 10
11.545893379736709
 20
240.99999999988091
 30
0.0
 40
0.5
  0
LINE
  5
1CD
  8
DATA
  6
CONTINUOUS
 62
     7
 10
6.04589337973671
 20
238.60208423822451
 30
0.0
 11
6.04589337973671
 21
243.40000000000001
 31
0.0
  0
LINE
  5
1CE
  8
DATA
  6
CONTINUOUS
 62
     7
 10
17.045893379736711
 20
238.60208423822451
 30
0.0
 11
17.045893379736711
 21
243.39791576153721
 31
0.0
  0
CIRCLE
  5
1CF
  8
DATA
  6
CONTINUOUS
 62
     7
 10
11.545893379736709
 20
240.99999999988091
 30
0.0
 40
2.0
  0
POLYLINE
  5
1D0
  8
DATA
  6
CONTINUOUS
 62
     7
 66
     1
 10
0.0
 20
0.0
 30
0.0
  0
VERTEX
  5
3DE
  8
DATA
  6
CONTINUOUS
 62
     7
 10
12.545893379736709
 20
236.25421239401399
 30
0.0
  0
VERTEX
  5
3DF
  8
DATA
  6
CONTINUOUS
 62
     7
 10
12.545893379736709
 20
235.4999999998808
 30
0.0
  0
VERTEX
  5
3E0
  8
DATA
  6
CONTINUOUS
 62
     7
 10
10.545893379736709
 20
235.4999999998808
 30
0.0
  0
VERTEX
  5
3E1
  8
DATA
  6
CONTINUOUS
 62
     7
 10
10.545893379736709
 20
236.25421239401399
 30
0.0
  0
SEQEND
  5
3E2
  8
DATA
  6
CONTINUOUS
 62
     7
  0
POLYLINE
  5
1D7
  8
DATA
  6
CONTINUOUS
 62
     7
 66
     1
 10
0.0
 20
0.0
 30
0.0
  0
VERTEX
  5
3E3
  8
DATA
  6
CONTINUOUS
 62
     7
 10
10.545893379736709
 20
245.74578760574769
 30
0.0
  0
VERTEX
  5
3E4
  8
DATA
  6
CONTINUOUS
 62
     7
 10
10.545893379736709
 20
246.49999999988091
 30
0.0
  0
VERTEX
  5
3E5
  8
DATA
  6
CONTINUOUS
 62
     7
 10
12.545893379736709
 20
246.49999999988091
 30
0.0
  0
VERTEX
  5
3E6
  8
DATA
  6
CONTINUOUS
 62
     7
 10
12.545893379736709
 20
245.74578760574769
 30
0.0
  0
SEQEND
  5
3E7
  8
DATA
  6
CONTINUOUS
 62
     7
  0
CIRCLE
  5
1DE
  8
DATA
  6
CONTINUOUS
 62
     7
 10
-17.454106620263289
 20
240.99999999988091
 30
0.0
 40
4.8499999999999934
  0
ARC
  5
1DF
  8
DATA
  6
CONTINUOUS
 62
     7
 10
-17.454106620263289
 20
240.99999999988091
 30
0.0
 40
6.0000000000000009
 50
203.5564643091013
 51
336.44353569089873
  0
ARC
  5
1E0
  8
DATA
  6
CONTINUOUS
 62
     7
 10
-17.454106620263289
 20
240.99999999988091
 30
0.0
 40
6.0000000000000009
 50
23.556464309101269
 51
156.44353569089881
  0
CIRCLE
  5
1E1
  8
DATA
  6
CONTINUOUS
 62
     7
 10
-17.454106620263289
 20
240.99999999988091
 30
0.0
 40
8.0
  0
CIRCLE
  5
1E2
  8
DATA
  6
CONTINUOUS
 62
     7
 10
-17.454106620263289
 20
240.99999999988091
 30
0.0
 40
0.5
  0
LINE
  5
1E3
  8
DATA
  6
CONTINUOUS
 62
     7
 10
-22.954106620263289
 20
238.60208423822451
 30
0.0
 11
-22.954106620263289
 21
243.40000000000001
 31
0.0
  0
LINE
  5
1E4
  8
DATA
  6
CONTINUOUS
 62
     7
 10
-11.95410662026328
 20
238.60208423822451
 30
0.0
 11
-11.95410662026328
 21
243.39791576153721
 31
0.0
  0
CIRCLE
  5
1E5
  8
DATA
  6
CONTINUOUS
 62
     7
 10
-17.454106620263289
 20
240.99999999988091
 30
0.0
 40
2.0
  0
POLYLINE
  5
1E6
  8
DATA
  6
CONTINUOUS
 62
     7
 66
     1
 10
0.0
 20
0.0
 30
0.0
  0
VERTEX
  5
3E8
  8
DATA
  6
CONTINUOUS
 62
     7
 10
-16.454106620263289
 20
236.25421239401399
 30
0.0
  0
VERTEX
  5
3E9
  8
DATA
  6
CONTINUOUS
 62
     7
 10
-16.454106620263289
 20
235.4999999998808
 30
0.0
  0
VERTEX
  5
3EA
  8
DATA
  6
CONTINUOUS
 62
     7
 10
-18.454106620263289
 20
235.4999999998808
 30
0.0
  0
VERTEX
  5
3EB
  8
DATA
  6
CONTINUOUS
 62
     7
 10
-18.454106620263289
 20
236.25421239401399
 30
0.0
  0
SEQEND
  5
3EC
  8
DATA
  6
CONTINUOUS
 62
     7
  0
POLYLINE
  5
1ED
  8
DATA
  6
CONTINUOUS
 62
     7
 66
     1
 10
0.0
 20
0.0
 30
0.0
  0
VERTEX
  5
3ED
  8
DATA
  6
CONTINUOUS
 62
     7
 10
-18.454106620263289
 20
245.74578760574769
 30
0.0
  0
VERTEX
  5
3EE
  8
DATA
  6
CONTINUOUS
 62
     7
 10
-18.454106620263289
 20
246.49999999988091
 30
0.0
  0
VERTEX
  5
3EF
  8
DATA
  6
CONTINUOUS
 62
     7
 10
-16.454106620263289
 20
246.49999999988091
 30
0.0
  0
VERTEX
  5
3F0
  8
DATA
  6
CONTINUOUS
 62
     7
 10
-16.454106620263289
 20
245.74578760574769
 30
0.0
  0
SEQEND
  5
3F1
  8
DATA
  6
CONTINUOUS
 62
     7
  0
CIRCLE
  5
1F4
  8
DATA
  6
CONTINUOUS
 62
     7
 10
-46.454106620263133
 20
240.99999999988091
 30
0.0
 40
4.8500000000000227
  0
ARC
  5
1F5
  8
DATA
  6
CONTINUOUS
 62
     7
 10
-46.454106620263133
 20
240.99999999988091
 30
0.0
 40
6.0000000000000009
 50
203.5564643091013
 51
336.44353569089873
  0
ARC
  5
1F6
  8
DATA
  6
CONTINUOUS
 62
     7
 10
-46.454106620263133
 20
240.99999999988091
 30
0.0
 40
6.0000000000000009
 50
23.556464309101269
 51
156.44353569089881
  0
CIRCLE
  5
1F7
  8
DATA
  6
CONTINUOUS
 62
     7
 10
-46.454106620263133
 20
240.99999999988091
 30
0.0
 40
8.0
  0
CIRCLE
  5
1F8
  8
DATA
  6
CONTINUOUS
 62
     7
 10
-46.454106620263133
 20
240.99999999988091
 30
0.0
 40
0.5
  0
LINE
  5
1F9
  8
DATA
  6
CONTINUOUS
 62
     7
 10
-51.95410662026314
 20
238.60208423822451
 30
0.0
 11
-51.95410662026314
 21
243.40000000000001
 31
0.0
  0
LINE
  5
1FA
  8
DATA
  6
CONTINUOUS
 62
     7
 10
-40.95410662026314
 20
238.60208423822451
 30
0.0
 11
-40.95410662026314
 21
243.39791576153721
 31
0.0
  0
CIRCLE
  5
1FB
  8
DATA
  6
CONTINUOUS
 62
     7
 10
-46.454106620263133
 20
240.99999999988091
 30
0.0
 40
2.0
  0
POLYLINE
  5
1FC
  8
DATA
  6
CONTINUOUS
 62
     7
 66
     1
 10
0.0
 20
0.0
 30
0.0
  0
VERTEX
  5
3F2
  8
DATA
  6
CONTINUOUS
 62
     7
 10
-45.45410662026314
 20
236.25421239401399
 30
0.0
  0
VERTEX
  5
3F3
  8
DATA
  6
CONTINUOUS
 62
     7
 10
-45.45410662026314
 20
235.4999999998808
 30
0.0
  0
VERTEX
  5
3F4
  8
DATA
  6
CONTINUOUS
 62
     7
 10
-47.45410662026314
 20
235.4999999998808
 30
0.0
  0
VERTEX
  5
3F5
  8
DATA
  6
CONTINUOUS
 62
     7
 10
-47.45410662026314
 20
236.25421239401399
 30
0.0
  0
SEQEND
  5
3F6
  8
DATA
  6
CONTINUOUS
 62
     7
  0
POLYLINE
  5
203
  8
DATA
  6
CONTINUOUS
 62
     7
 66
     1
 10
0.0
 20
0.0
 30
0.0
  0
VERTEX
  5
3F7
  8
DATA
  6
CONTINUOUS
 62
     7
 10
-47.45410662026314
 20
245.74578760574769
 30
0.0
  0
VERTEX
  5
3F8
  8
DATA
  6
CONTINUOUS
 62
     7
 10
-47.45410662026314
 20
246.49999999988091
 30
0.0
  0
VERTEX
  5
3F9
  8
DATA
  6
CONTINUOUS
 62
     7
 10
-45.45410662026314
 20
246.49999999988091
 30
0.0
  0
VERTEX
  5
3FA
  8
DATA
  6
CONTINUOUS
 62
     7
 10
-45.45410662026314
 20
245.74578760574769
 30
0.0
  0
SEQEND
  5
3FB
  8
DATA
  6
CONTINUOUS
 62
     7
  0
CIRCLE
  5
20A
  8
DATA
  6
CONTINUOUS
 62
     7
 10
-75.454106620263133
 20
240.99999999988091
 30
0.0
 40
4.8500000000000227
  0
ARC
  5
20B
  8
DATA
  6
CONTINUOUS
 62
     7
 10
-75.454106620263133
 20
240.99999999988091
 30
0.0
 40
6.0000000000000009
 50
203.5564643091013
 51
336.44353569089873
  0
ARC
  5
20C
  8
DATA
  6
CONTINUOUS
 62
     7
 10
-75.454106620263133
 20
240.99999999988091
 30
0.0
 40
6.0000000000000009
 50
23.556464309101269
 51
156.44353569089881
  0
CIRCLE
  5
20D
  8
DATA
  6
CONTINUOUS
 62
     7
 10
-75.454106620263133
 20
240.99999999988091
 30
0.0
 40
8.0
  0
CIRCLE
  5
20E
  8
DATA
  6
CONTINUOUS
 62
     7
 10
-75.454106620263133
 20
240.99999999988091
 30
0.0
 40
0.5
  0
LINE
  5
20F
  8
DATA
  6
CONTINUOUS
 62
     7
 10
-80.954106620263133
 20
238.60208423822451
 30
0.0
 11
-80.954106620263133
 21
243.40000000000001
 31
0.0
  0
LINE
  5
210
  8
DATA
  6
CONTINUOUS
 62
     7
 10
-69.954106620263133
 20
238.60208423822451
 30
0.0
 11
-69.954106620263133
 21
243.39791576153721
 31
0.0
  0
CIRCLE
  5
211
  8
DATA
  6
CONTINUOUS
 62
     7
 10
-75.454106620263133
 20
240.99999999988091
 30
0.0
 40
2.0
  0
POLYLINE
  5
212
  8
DATA
  6
CONTINUOUS
 62
     7
 66
     1
 10
0.0
 20
0.0
 30
0.0
  0
VERTEX
  5
3FC
  8
DATA
  6
CONTINUOUS
 62
     7
 10
-74.454106620263133
 20
236.25421239401399
 30
0.0
  0
VERTEX
  5
3FD
  8
DATA
  6
CONTINUOUS
 62
     7
 10
-74.454106620263133
 20
235.4999999998808
 30
0.0
  0
VERTEX
  5
3FE
  8
DATA
  6
CONTINUOUS
 62
     7
 10
-76.454106620263133
 20
235.4999999998808
 30
0.0
  0
VERTEX
  5
3FF
  8
DATA
  6
CONTINUOUS
 62
     7
 10
-76.454106620263133
 20
236.25421239401399
 30
0.0
  0
SEQEND
  5
400
  8
DATA
  6
CONTINUOUS
 62
     7
  0
POLYLINE
  5
219
  8
DATA
  6
CONTINUOUS
 62
     7
 66
     1
 10
0.0
 20
0.0
 30
0.0
  0
VERTEX
  5
401
  8
DATA
  6
CONTINUOUS
 62
     7
 10
-76.454106620263133
 20
245.74578760574769
 30
0.0
  0
VERTEX
  5
402
  8
DATA
  6
CONTINUOUS
 62
     7
 10
-76.454106620263133
 20
246.49999999988091
 30
0.0
  0
VERTEX
  5
403
  8
DATA
  6
CONTINUOUS
 62
     7
 10
-74.454106620263133
 20
246.49999999988091
 30
0.0
  0
VERTEX
  5
404
  8
DATA
  6
CONTINUOUS
 62
     7
 10
-74.454106620263133
 20
245.74578760574769
 30
0.0
  0
SEQEND
  5
405
  8
DATA
  6
CONTINUOUS
 62
     7
  0
CIRCLE
  5
220
  8
DATA
  6
CONTINUOUS
 62
     7
 10
-104.4541066202631
 20
240.99999999988091
 30
0.0
 40
4.8500000000000227
  0
ARC
  5
221
  8
DATA
  6
CONTINUOUS
 62
     7
 10
-104.4541066202631
 20
240.99999999988091
 30
0.0
 40
6.0000000000000009
 50
203.5564643091013
 51
336.44353569089873
  0
ARC
  5
222
  8
DATA
  6
CONTINUOUS
 62
     7
 10
-104.4541066202631
 20
240.99999999988091
 30
0.0
 40
6.0000000000000009
 50
23.556464309101269
 51
156.44353569089881
  0
CIRCLE
  5
223
  8
DATA
  6
CONTINUOUS
 62
     7
 10
-104.4541066202631
 20
240.99999999988091
 30
0.0
 40
8.0
  0
CIRCLE
  5
224
  8
DATA
  6
CONTINUOUS
 62
     7
 10
-104.4541066202631
 20
240.99999999988091
 30
0.0
 40
0.5
  0
LINE
  5
225
  8
DATA
  6
CONTINUOUS
 62
     7
 10
-109.9541066202631
 20
238.60208423822451
 30
0.0
 11
-109.9541066202631
 21
243.40000000000001
 31
0.0
  0
LINE
  5
226
  8
DATA
  6
CONTINUOUS
 62
     7
 10
-98.954106620263147
 20
238.60208423822451
 30
0.0
 11
-98.954106620263147
 21
243.39791576153721
 31
0.0
  0
CIRCLE
  5
227
  8
DATA
  6
CONTINUOUS
 62
     7
 10
-104.4541066202631
 20
240.99999999988091
 30
0.0
 40
2.0
  0
POLYLINE
  5
228
  8
DATA
  6
CONTINUOUS
 62
     7
 66
     1
 10
0.0
 20
0.0
 30
0.0
  0
VERTEX
  5
406
  8
DATA
  6
CONTINUOUS
 62
     7
 10
-103.4541066202631
 20
236.25421239401399
 30
0.0
  0
VERTEX
  5
407
  8
DATA
  6
CONTINUOUS
 62
     7
 10
-103.4541066202631
 20
235.4999999998808
 30
0.0
  0
VERTEX
  5
408
  8
DATA
  6
CONTINUOUS
 62
     7
 10
-105.4541066202631
 20
235.4999999998808
 30
0.0
  0
VERTEX
  5
409
  8
DATA
  6
CONTINUOUS
 62
     7
 10
-105.4541066202631
 20
236.25421239401399
 30
0.0
  0
SEQEND
  5
40A
  8
DATA
  6
CONTINUOUS
 62
     7
  0
POLYLINE
  5
22F
  8
DATA
  6
CONTINUOUS
 62
     7
 66
     1
 10
0.0
 20
0.0
 30
0.0
  0
VERTEX
  5
40B
  8
DATA
  6
CONTINUOUS
 62
     7
 10
-105.4541066202631
 20
245.74578760574769
 30
0.0
  0
VERTEX
  5
40C
  8
DATA
  6
CONTINUOUS
 62
     7
 10
-105.4541066202631
 20
246.49999999988091
 30
0.0
  0
VERTEX
  5
40D
  8
DATA
  6
CONTINUOUS
 62
     7
 10
-103.4541066202631
 20
246.49999999988091
 30
0.0
  0
VERTEX
  5
40E
  8
DATA
  6
CONTINUOUS
 62
     7
 10
-103.4541066202631
 20
245.74578760574769
 30
0.0
  0
SEQEND
  5
40F
  8
DATA
  6
CONTINUOUS
 62
     7
  0
CIRCLE
  5
236
  8
DATA
  6
CONTINUOUS
 62
     7
 10
-133.4541066202631
 20
240.99999999988091
 30
0.0
 40
4.8500000000000227
  0
ARC
  5
237
  8
DATA
  6
CONTINUOUS
 62
     7
 10
-133.4541066202631
 20
240.99999999988091
 30
0.0
 40
6.0000000000000009
 50
203.5564643091013
 51
336.44353569089873
  0
ARC
  5
238
  8
DATA
  6
CONTINUOUS
 62
     7
 10
-133.4541066202631
 20
240.99999999988091
 30
0.0
 40
6.0000000000000009
 50
23.556464309101269
 51
156.44353569089881
  0
CIRCLE
  5
239
  8
DATA
  6
CONTINUOUS
 62
     7
 10
-133.4541066202631
 20
240.99999999988091
 30
0.0
 40
8.0
  0
CIRCLE
  5
23A
  8
DATA
  6
CONTINUOUS
 62
     7
 10
-133.4541066202631
 20
240.99999999988091
 30
0.0
 40
0.5
  0
LINE
  5
23B
  8
DATA
  6
CONTINUOUS
 62
     7
 10
-138.9541066202631
 20
238.60208423822451
 30
0.0
 11
-138.9541066202631
 21
243.40000000000001
 31
0.0
  0
LINE
  5
23C
  8
DATA
  6
CONTINUOUS
 62
     7
 10
-127.9541066202631
 20
238.60208423822451
 30
0.0
 11
-127.9541066202631
 21
243.39791576153721
 31
0.0
  0
CIRCLE
  5
23D
  8
DATA
  6
CONTINUOUS
 62
     7
 10
-133.4541066202631
 20
240.99999999988091
 30
0.0
 40
2.0
  0
POLYLINE
  5
23E
  8
DATA
  6
CONTINUOUS
 62
     7
 66
     1
 10
0.0
 20
0.0
 30
0.0
  0
VERTEX
  5
410
  8
DATA
  6
CONTINUOUS
 62
     7
 10
-132.4541066202631
 20
236.25421239401399
 30
0.0
  0
VERTEX
  5
411
  8
DATA
  6
CONTINUOUS
 62
     7
 10
-132.4541066202631
 20
235.4999999998808
 30
0.0
  0
VERTEX
  5
412
  8
DATA
  6
CONTINUOUS
 62
     7
 10
-134.4541066202631
 20
235.4999999998808
 30
0.0
  0
VERTEX
  5
413
  8
DATA
  6
CONTINUOUS
 62
     7
 10
-134.4541066202631
 20
236.25421239401399
 30
0.0
  0
SEQEND
  5
414
  8
DATA
  6
CONTINUOUS
 62
     7
  0
POLYLINE
  5
245
  8
DATA
  6
CONTINUOUS
 62
     7
 66
     1
 10
0.0
 20
0.0
 30
0.0
  0
VERTEX
  5
415
  8
DATA
  6
CONTINUOUS
 62
     7
 10
-134.4541066202631
 20
245.74578760574769
 30
0.0
  0
VERTEX
  5
416
  8
DATA
  6
CONTINUOUS
 62
     7
 10
-134.4541066202631
 20
246.49999999988091
 30
0.0
  0
VERTEX
  5
417
  8
DATA
  6
CONTINUOUS
 62
     7
 10
-132.4541066202631
 20
246.49999999988091
 30
0.0
  0
VERTEX
  5
418
  8
DATA
  6
CONTINUOUS
 62
     7
 10
-132.4541066202631
 20
245.74578760574769
 30
0.0
  0
SEQEND
  5
419
  8
DATA
  6
CONTINUOUS
 62
     7
  0
TEXT
  5
24C
  8
DATA
 62
     7
 10
41.186023367255871
 20
262.41652734839022
 30
0.0
 40
1.5202517361111101
  1
LINK A TO PS
 50
270.0
 41
0.7
 11
42.706275103366991
 21
262.41652734839022
 31
0.0
 73
     3
  0
LINE
  5
24D
  8
DATA
  6
CONTINUOUS
 62
     7
 10
3.33159379253037
 20
249.04875128816289
 30
0.0
 11
3.33159379253037
 21
230.5
 31
0.0
  0
LINE
  5
24E
  8
DATA
  6
CONTINUOUS
 62
     7
 10
19.810777376342099
 20
249.04875128816289
 30
0.0
 11
19.810777376342099
 21
230.5
 31
0.0
  0
TEXT
  5
24F
  8
DATA
 62
     7
 10
-14.74480053353637
 20
232.37531985290121
 30
0.0
 40
1.5202517361111101
  1
ANTENNA A OUT TO SR
 50
180.0
 41
0.7
 11
-14.74480053353637
 21
230.85506811679011
 31
0.0
 73
     3
  0
LINE
  5
250
  8
DATA
  6
CONTINUOUS
 62
     7
 10
-55.279349204141369
 20
249.04875128816289
 30
0.0
 11
-55.279349204141369
 21
230.5
 31
0.0
  0
LINE
  5
251
  8
DATA
  6
CONTINUOUS
 62
     7
 10
-112.83923565904691
 20
249.04875128816289
 30
0.0
 11
-112.83923565904691
 21
230.5
 31
0.0
  0
LINE
  5
252
  8
DATA
  6
CONTINUOUS
 62
     7
 10
-125.17344224971581
 20
249.04875128816289
 30
0.0
 11
-125.17344224971581
 21
230.5
 31
0.0
  0
TEXT
  5
253
  8
DATA
 62
     7
 10
11.990910923568411
 20
232.48473768756091
 30
0.0
 40
1.5202517361111101
  1
A
 50
180.0
 41
0.7
 11
11.990910923568411
 21
230.96448595144969
 31
0.0
 73
     3
  0
TEXT
  5
254
  8
DATA
 62
     7
 10
15.327972673509249
 20
251.2040061019724
 30
0.0
 40
1.5202517361111101
  1
ANTENNA 
 50
180.0
 41
0.7
 11
15.327972673509249
 21
249.68375436586129
 31
0.0
 73
     3
  0
TEXT
  5
255
  8
DATA
 62
     7
 10
14.175044845977579
 20
253.4341034152641
 30
0.0
 40
1.5202517361111101
  1
A IN
 50
180.0
 41
0.7
 11
14.175044845977579
 21
251.913851679153
 31
0.0
 73
     3
  0
TEXT
  5
256
  8
DATA
 62
     7
 10
-73.071577253275933
 20
232.37531985290121
 30
0.0
 40
1.5202517361111101
  1
ANTENNA B OUT TO SR
 50
180.0
 41
0.7
 11
-73.071577253275933
 21
230.85506811679011
 31
0.0
 73
     3
  0
TEXT
  5
257
  8
DATA
 62
     7
 10
-127.9312353389958
 20
232.29934915420611
 30
0.0
 40
1.5202517361111101
  1
LINK B TO PS
 50
180.0
 41
0.7
 11
-127.9312353389958
 21
230.77909741809501
 31
0.0
 73
     3
  0
TEXT
  5
258
  8
DATA
 62
     7
 10
-115.9170677144637
 20
244.91261538391271
 30
0.0
 40
1.5202517361111101
  1
ANTENNA 
 50
180.0
 41
0.7
 11
-115.9170677144637
 21
243.3923636478016
 31
0.0
 73
     3
  0
TEXT
  5
259
  8
DATA
 62
     7
 10
-117.0699955419953
 20
247.14271269720439
 30
0.0
 40
1.5202517361111101
  1
B IN
 50
180.0
 41
0.7
 11
-117.0699955419953
 21
245.62246096109331
 31
0.0
 73
     3
  0
TEXT
  5
25A
  8
DATA
 62
     7
 10
-118.7649640155592
 20
232.58805635142161
 30
0.0
 40
1.5202517361111101
  1
B
 50
180.0
 41
0.7
 11
-118.7649640155592
 21
231.06780461531051
 31
0.0
 73
     3
  0
TEXT
  5
25B
  8
DATA
 62
     7
 10
-1.62665356897375
 20
247.25034159376071
 30
0.0
 40
1.5202517361111101
  1
1A
 50
180.0
 41
0.7
 11
-1.62665356897375
 21
245.7300898576496
 31
0.0
 73
     3
  0
TEXT
  5
25C
  8
DATA
 62
     7
 10
-30.62665356897373
 20
247.25034159376071
 30
0.0
 40
1.5202517361111101
  1
3A
 50
180.0
 41
0.7
 11
-30.62665356897373
 21
245.7300898576496
 31
0.0
 73
     3
  0
TEXT
  5
25D
  8
DATA
 62
     7
 10
-59.626653568973751
 20
247.25034159376071
 30
0.0
 40
1.5202517361111101
  1
4B
 50
180.0
 41
0.7
 11
-59.626653568973751
 21
245.7300898576496
 31
0.0
 73
     3
  0
TEXT
  5
25E
  8
DATA
 62
     7
 10
-88.626653568973737
 20
247.25034159376071
 30
0.0
 40
1.5202517361111101
  1
2B
 50
180.0
 41
0.7
 11
-88.626653568973737
 21
245.7300898576496
 31
0.0
 73
     3
  0
TEXT
  5
25F
  8
DATA
 62
     7
 10
-16.354571326093222
 20
251.0384857303336
 30
0.0
 40
1.5202517361111101
  1
2A
 50
180.0
 41
0.7
 11
-16.354571326093222
 21
249.5182339942225
 31
0.0
 73
     3
  0
TEXT
  5
260
  8
DATA
 62
     7
 10
-45.354571326093208
 20
251.0384857303336
 30
0.0
 40
1.5202517361111101
  1
4A
 50
180.0
 41
0.7
 11
-45.354571326093208
 21
249.5182339942225
 31
0.0
 73
     3
  0
TEXT
  5
261
  8
DATA
 62
     7
 10
-74.354571326093222
 20
251.0384857303336
 30
0.0
 40
1.5202517361111101
  1
3B
 50
180.0
 41
0.7
 11
-74.354571326093222
 21
249.5182339942225
 31
0.0
 73
     3
  0
TEXT
  5
262
  8
DATA
 62
     7
 10
-103.35457132609319
 20
251.0384857303336
 30
0.0
 40
1.5202517361111101
  1
1B
 50
180.0
 41
0.7
 11
-103.35457132609319
 21
249.5182339942225
 31
0.0
 73
     3
  0
TEXT
  5
263
  8
DATA
 62
     7
 10
-42.532221953074107
 20
265.2313433928897
 30
0.0
 40
1.5202517361111101
  1
MADE IN AUSTRIA
 50
180.0
 41
0.7
 11
-42.532221953074107
 21
263.71109165677859
 31
0.0
 73
     3
  0
LINE
  5
264
  8
DATA
  6
CONTINUOUS
 62
     7
 10
42.337660722310652
 20
234.43642971577691
 30
0.0
 11
42.337660722310652
 21
244.73642971577681
 31
0.0
  0
LINE
  5
265
  8
DATA
  6
STYLE_05
 62
     7
 10
40.526533150654679
 20
234.43642971577691
 30
0.0
 11
40.526533150654679
 21
244.73642971577681
 31
0.0
  0
LINE
  5
266
  8
DATA
  6
CONTINUOUS
 62
     7
 10
-138.3041066202631
 20
141.99999999999989
 30
0.0
 11
-138.3041066202631
 21
155.0
 31
0.0
  0
LINE
  5
267
  8
DATA
  6
CONTINUOUS
 62
     7
 10
-128.60410662026311
 20
155.0
 30
0.0
 11
-128.60410662026311
 21
141.99999999999989
 31
0.0
  0
LINE
  5
268
  8
DATA
  6
CONTINUOUS
 62
     7
 10
-138.3041066202631
 20
155.0
 30
0.0
 11
-128.60410662026311
 21
155.0
 31
0.0
  0
LINE
  5
269
  8
DATA
  6
CONTINUOUS
 62
     7
 10
-138.9541066202631
 20
141.99999999999989
 30
0.0
 11
-127.9541066202631
 21
141.99999999999989
 31
0.0
  0
LINE
  5
26A
  8
DATA
  6
CONTINUOUS
 62
     7
 10
-138.9541066202631
 20
141.99999999999989
 30
0.0
 11
-138.9541066202631
 21
138.5
 31
0.0
  0
LINE
  5
26B
  8
DATA
  6
CONTINUOUS
 62
     7
 10
-127.9541066202631
 20
141.99999999999989
 30
0.0
 11
-127.9541066202631
 21
138.5
 31
0.0
  0
LINE
  5
26C
  8
DATA
  6
CONTINUOUS
 62
     7
 10
-141.4541066202631
 20
138.5
 30
0.0
 11
-141.4541066202631
 21
135.99999999999989
 31
0.0
  0
LINE
  5
26D
  8
DATA
  6
CONTINUOUS
 62
     7
 10
-125.4541066202631
 20
138.5
 30
0.0
 11
-125.4541066202631
 21
135.99999999999989
 31
0.0
  0
LINE
  5
26E
  8
DATA
  6
CONTINUOUS
 62
     7
 10
-141.4541066202631
 20
138.5
 30
0.0
 11
-125.4541066202631
 21
138.5
 31
0.0
  0
CIRCLE
  5
26F
  8
DATA
  6
CONTINUOUS
 62
     7
 10
-133.4541066202631
 20
150.99999999999989
 30
0.0
 40
1.0
  0
LINE
  5
270
  8
DATA
  6
CONTINUOUS
 62
     7
 10
-123.8041066202631
 20
141.99999999999989
 30
0.0
 11
-123.8041066202631
 21
155.0
 31
0.0
  0
LINE
  5
271
  8
DATA
  6
CONTINUOUS
 62
     7
 10
-114.1041066202631
 20
155.0
 30
0.0
 11
-114.1041066202631
 21
141.99999999999989
 31
0.0
  0
LINE
  5
272
  8
DATA
  6
CONTINUOUS
 62
     7
 10
-123.8041066202631
 20
155.0
 30
0.0
 11
-114.1041066202631
 21
155.0
 31
0.0
  0
LINE
  5
273
  8
DATA
  6
CONTINUOUS
 62
     7
 10
-124.4541066202631
 20
141.99999999999989
 30
0.0
 11
-113.4541066202631
 21
141.99999999999989
 31
0.0
  0
LINE
  5
274
  8
DATA
  6
CONTINUOUS
 62
     7
 10
-124.4541066202631
 20
141.99999999999989
 30
0.0
 11
-124.4541066202631
 21
138.5
 31
0.0
  0
LINE
  5
275
  8
DATA
  6
CONTINUOUS
 62
     7
 10
-113.4541066202631
 20
141.99999999999989
 30
0.0
 11
-113.4541066202631
 21
138.5
 31
0.0
  0
LINE
  5
276
  8
DATA
  6
CONTINUOUS
 62
     7
 10
-126.9541066202631
 20
138.5
 30
0.0
 11
-126.9541066202631
 21
135.99999999999989
 31
0.0
  0
LINE
  5
277
  8
DATA
  6
CONTINUOUS
 62
     7
 10
-110.9541066202631
 20
138.5
 30
0.0
 11
-110.9541066202631
 21
135.99999999999989
 31
0.0
  0
LINE
  5
278
  8
DATA
  6
CONTINUOUS
 62
     7
 10
-126.9541066202631
 20
138.5
 30
0.0
 11
-110.9541066202631
 21
138.5
 31
0.0
  0
CIRCLE
  5
279
  8
DATA
  6
CONTINUOUS
 62
     7
 10
-118.9541066202631
 20
150.99999999999989
 30
0.0
 40
1.0
  0
LINE
  5
27A
  8
DATA
  6
CONTINUOUS
 62
     7
 10
-109.3041066202631
 20
141.99999999999989
 30
0.0
 11
-109.3041066202631
 21
155.0
 31
0.0
  0
LINE
  5
27B
  8
DATA
  6
CONTINUOUS
 62
     7
 10
-99.604106620263153
 20
155.0
 30
0.0
 11
-99.604106620263153
 21
141.99999999999989
 31
0.0
  0
LINE
  5
27C
  8
DATA
  6
CONTINUOUS
 62
     7
 10
-109.3041066202631
 20
155.0
 30
0.0
 11
-99.604106620263153
 21
155.0
 31
0.0
  0
LINE
  5
27D
  8
DATA
  6
CONTINUOUS
 62
     7
 10
-109.9541066202631
 20
141.99999999999989
 30
0.0
 11
-98.954106620263147
 21
141.99999999999989
 31
0.0
  0
LINE
  5
27E
  8
DATA
  6
CONTINUOUS
 62
     7
 10
-109.9541066202631
 20
141.99999999999989
 30
0.0
 11
-109.9541066202631
 21
138.5
 31
0.0
  0
LINE
  5
27F
  8
DATA
  6
CONTINUOUS
 62
     7
 10
-98.954106620263147
 20
141.99999999999989
 30
0.0
 11
-98.954106620263147
 21
138.5
 31
0.0
  0
LINE
  5
280
  8
DATA
  6
CONTINUOUS
 62
     7
 10
-112.4541066202631
 20
138.5
 30
0.0
 11
-112.4541066202631
 21
135.99999999999989
 31
0.0
  0
LINE
  5
281
  8
DATA
  6
CONTINUOUS
 62
     7
 10
-96.454106620263147
 20
138.5
 30
0.0
 11
-96.454106620263147
 21
135.99999999999989
 31
0.0
  0
LINE
  5
282
  8
DATA
  6
CONTINUOUS
 62
     7
 10
-112.4541066202631
 20
138.5
 30
0.0
 11
-96.454106620263147
 21
138.5
 31
0.0
  0
CIRCLE
  5
283
  8
DATA
  6
CONTINUOUS
 62
     7
 10
-104.4541066202631
 20
150.99999999999989
 30
0.0
 40
1.0
  0
LINE
  5
284
  8
DATA
  6
CONTINUOUS
 62
     7
 10
-94.804106620263155
 20
141.99999999999989
 30
0.0
 11
-94.804106620263155
 21
155.0
 31
0.0
  0
LINE
  5
285
  8
DATA
  6
CONTINUOUS
 62
     7
 10
-85.104106620263138
 20
155.0
 30
0.0
 11
-85.104106620263138
 21
141.99999999999989
 31
0.0
  0
LINE
  5
286
  8
DATA
  6
CONTINUOUS
 62
     7
 10
-94.804106620263155
 20
155.0
 30
0.0
 11
-85.104106620263138
 21
155.0
 31
0.0
  0
LINE
  5
287
  8
DATA
  6
CONTINUOUS
 62
     7
 10
-95.454106620263133
 20
141.99999999999989
 30
0.0
 11
-84.454106620263133
 21
141.99999999999989
 31
0.0
  0
LINE
  5
288
  8
DATA
  6
CONTINUOUS
 62
     7
 10
-95.454106620263133
 20
141.99999999999989
 30
0.0
 11
-95.454106620263133
 21
138.5
 31
0.0
  0
LINE
  5
289
  8
DATA
  6
CONTINUOUS
 62
     7
 10
-84.454106620263133
 20
141.99999999999989
 30
0.0
 11
-84.454106620263133
 21
138.5
 31
0.0
  0
LINE
  5
28A
  8
DATA
  6
CONTINUOUS
 62
     7
 10
-97.954106620263133
 20
138.5
 30
0.0
 11
-97.954106620263133
 21
135.99999999999989
 31
0.0
  0
LINE
  5
28B
  8
DATA
  6
CONTINUOUS
 62
     7
 10
-81.954106620263133
 20
138.5
 30
0.0
 11
-81.954106620263133
 21
135.99999999999989
 31
0.0
  0
LINE
  5
28C
  8
DATA
  6
CONTINUOUS
 62
     7
 10
-97.954106620263133
 20
138.5
 30
0.0
 11
-81.954106620263133
 21
138.5
 31
0.0
  0
CIRCLE
  5
28D
  8
DATA
  6
CONTINUOUS
 62
     7
 10
-89.954106620263147
 20
150.99999999999989
 30
0.0
 40
1.0
  0
LINE
  5
28E
  8
DATA
  6
CONTINUOUS
 62
     7
 10
-80.304106620263184
 20
141.99999999999989
 30
0.0
 11
-80.304106620263184
 21
155.0
 31
0.0
  0
LINE
  5
28F
  8
DATA
  6
CONTINUOUS
 62
     7
 10
-70.604106620263153
 20
155.0
 30
0.0
 11
-70.604106620263153
 21
141.99999999999989
 31
0.0
  0
LINE
  5
290
  8
DATA
  6
CONTINUOUS
 62
     7
 10
-80.304106620263184
 20
155.0
 30
0.0
 11
-70.604106620263153
 21
155.0
 31
0.0
  0
LINE
  5
291
  8
DATA
  6
CONTINUOUS
 62
     7
 10
-80.954106620263133
 20
141.99999999999989
 30
0.0
 11
-69.954106620263133
 21
141.99999999999989
 31
0.0
  0
LINE
  5
292
  8
DATA
  6
CONTINUOUS
 62
     7
 10
-80.954106620263133
 20
141.99999999999989
 30
0.0
 11
-80.954106620263133
 21
138.5
 31
0.0
  0
LINE
  5
293
  8
DATA
  6
CONTINUOUS
 62
     7
 10
-69.954106620263133
 20
141.99999999999989
 30
0.0
 11
-69.954106620263133
 21
138.5
 31
0.0
  0
LINE
  5
294
  8
DATA
  6
CONTINUOUS
 62
     7
 10
-83.454106620263133
 20
138.5
 30
0.0
 11
-83.454106620263133
 21
135.99999999999989
 31
0.0
  0
LINE
  5
295
  8
DATA
  6
CONTINUOUS
 62
     7
 10
-67.454106620263133
 20
138.5
 30
0.0
 11
-67.454106620263133
 21
135.99999999999989
 31
0.0
  0
LINE
  5
296
  8
DATA
  6
CONTINUOUS
 62
     7
 10
-83.454106620263133
 20
138.5
 30
0.0
 11
-67.454106620263133
 21
138.5
 31
0.0
  0
CIRCLE
  5
297
  8
DATA
  6
CONTINUOUS
 62
     7
 10
-75.454106620263133
 20
150.99999999999989
 30
0.0
 40
1.0
  0
LINE
  5
298
  8
DATA
  6
CONTINUOUS
 62
     7
 10
-65.804106620263155
 20
141.99999999999989
 30
0.0
 11
-65.804106620263155
 21
155.0
 31
0.0
  0
LINE
  5
299
  8
DATA
  6
CONTINUOUS
 62
     7
 10
-56.104106620263138
 20
155.0
 30
0.0
 11
-56.104106620263138
 21
141.99999999999989
 31
0.0
  0
LINE
  5
29A
  8
DATA
  6
CONTINUOUS
 62
     7
 10
-65.804106620263155
 20
155.0
 30
0.0
 11
-56.104106620263138
 21
155.0
 31
0.0
  0
LINE
  5
29B
  8
DATA
  6
CONTINUOUS
 62
     7
 10
-66.454106620263133
 20
141.99999999999989
 30
0.0
 11
-55.45410662026314
 21
141.99999999999989
 31
0.0
  0
LINE
  5
29C
  8
DATA
  6
CONTINUOUS
 62
     7
 10
-66.454106620263133
 20
141.99999999999989
 30
0.0
 11
-66.454106620263133
 21
138.5
 31
0.0
  0
LINE
  5
29D
  8
DATA
  6
CONTINUOUS
 62
     7
 10
-55.45410662026314
 20
141.99999999999989
 30
0.0
 11
-55.45410662026314
 21
138.5
 31
0.0
  0
LINE
  5
29E
  8
DATA
  6
CONTINUOUS
 62
     7
 10
-68.954106620263133
 20
138.5
 30
0.0
 11
-68.954106620263133
 21
135.99999999999989
 31
0.0
  0
LINE
  5
29F
  8
DATA
  6
CONTINUOUS
 62
     7
 10
-52.95410662026314
 20
138.5
 30
0.0
 11
-52.95410662026314
 21
135.99999999999989
 31
0.0
  0
LINE
  5
2A0
  8
DATA
  6
CONTINUOUS
 62
     7
 10
-68.954106620263133
 20
138.5
 30
0.0
 11
-52.95410662026314
 21
138.5
 31
0.0
  0
CIRCLE
  5
2A1
  8
DATA
  6
CONTINUOUS
 62
     7
 10
-60.954106620263133
 20
150.99999999999989
 30
0.0
 40
1.0
  0
LINE
  5
2A2
  8
DATA
  6
CONTINUOUS
 62
     7
 10
-51.30410662026317
 20
141.99999999999989
 30
0.0
 11
-51.30410662026317
 21
155.0
 31
0.0
  0
LINE
  5
2A3
  8
DATA
  6
CONTINUOUS
 62
     7
 10
-41.604106620263138
 20
155.0
 30
0.0
 11
-41.604106620263138
 21
141.99999999999989
 31
0.0
  0
LINE
  5
2A4
  8
DATA
  6
CONTINUOUS
 62
     7
 10
-51.30410662026317
 20
155.0
 30
0.0
 11
-41.604106620263138
 21
155.0
 31
0.0
  0
LINE
  5
2A5
  8
DATA
  6
CONTINUOUS
 62
     7
 10
-51.95410662026314
 20
141.99999999999989
 30
0.0
 11
-40.95410662026314
 21
141.99999999999989
 31
0.0
  0
LINE
  5
2A6
  8
DATA
  6
CONTINUOUS
 62
     7
 10
-51.95410662026314
 20
141.99999999999989
 30
0.0
 11
-51.95410662026314
 21
138.5
 31
0.0
  0
LINE
  5
2A7
  8
DATA
  6
CONTINUOUS
 62
     7
 10
-40.95410662026314
 20
141.99999999999989
 30
0.0
 11
-40.95410662026314
 21
138.5
 31
0.0
  0
LINE
  5
2A8
  8
DATA
  6
CONTINUOUS
 62
     7
 10
-54.45410662026314
 20
138.5
 30
0.0
 11
-54.45410662026314
 21
135.99999999999989
 31
0.0
  0
LINE
  5
2A9
  8
DATA
  6
CONTINUOUS
 62
     7
 10
-38.454106620263147
 20
138.5
 30
0.0
 11
-38.454106620263147
 21
135.99999999999989
 31
0.0
  0
LINE
  5
2AA
  8
DATA
  6
CONTINUOUS
 62
     7
 10
-54.45410662026314
 20
138.5
 30
0.0
 11
-38.454106620263147
 21
138.5
 31
0.0
  0
CIRCLE
  5
2AB
  8
DATA
  6
CONTINUOUS
 62
     7
 10
-46.454106620263133
 20
150.99999999999989
 30
0.0
 40
1.0
  0
LINE
  5
2AC
  8
DATA
  6
CONTINUOUS
 62
     7
 10
-36.80410662026317
 20
141.99999999999989
 30
0.0
 11
-36.80410662026317
 21
155.0
 31
0.0
  0
LINE
  5
2AD
  8
DATA
  6
CONTINUOUS
 62
     7
 10
-27.10410662026316
 20
155.0
 30
0.0
 11
-27.10410662026316
 21
141.99999999999989
 31
0.0
  0
LINE
  5
2AE
  8
DATA
  6
CONTINUOUS
 62
     7
 10
-36.80410662026317
 20
155.0
 30
0.0
 11
-27.10410662026316
 21
155.0
 31
0.0
  0
LINE
  5
2AF
  8
DATA
  6
CONTINUOUS
 62
     7
 10
-37.454106620263147
 20
141.99999999999989
 30
0.0
 11
-26.454106620263151
 21
141.99999999999989
 31
0.0
  0
LINE
  5
2B0
  8
DATA
  6
CONTINUOUS
 62
     7
 10
-37.454106620263147
 20
141.99999999999989
 30
0.0
 11
-37.454106620263147
 21
138.5
 31
0.0
  0
LINE
  5
2B1
  8
DATA
  6
CONTINUOUS
 62
     7
 10
-26.454106620263151
 20
141.99999999999989
 30
0.0
 11
-26.454106620263151
 21
138.5
 31
0.0
  0
LINE
  5
2B2
  8
DATA
  6
CONTINUOUS
 62
     7
 10
-39.954106620263147
 20
138.5
 30
0.0
 11
-39.954106620263147
 21
135.99999999999989
 31
0.0
  0
LINE
  5
2B3
  8
DATA
  6
CONTINUOUS
 62
     7
 10
-23.954106620263151
 20
138.5
 30
0.0
 11
-23.954106620263151
 21
135.99999999999989
 31
0.0
  0
LINE
  5
2B4
  8
DATA
  6
CONTINUOUS
 62
     7
 10
-39.954106620263147
 20
138.5
 30
0.0
 11
-23.954106620263151
 21
138.5
 31
0.0
  0
CIRCLE
  5
2B5
  8
DATA
  6
CONTINUOUS
 62
     7
 10
-31.954106620263151
 20
150.99999999999989
 30
0.0
 40
1.0
  0
LINE
  5
2B6
  8
DATA
  6
CONTINUOUS
 62
     7
 10
-22.30410662026317
 20
141.99999999999989
 30
0.0
 11
-22.30410662026317
 21
155.0
 31
0.0
  0
LINE
  5
2B7
  8
DATA
  6
CONTINUOUS
 62
     7
 10
-12.604106620263151
 20
155.0
 30
0.0
 11
-12.604106620263151
 21
141.99999999999989
 31
0.0
  0
LINE
  5
2B8
  8
DATA
  6
CONTINUOUS
 62
     7
 10
-22.30410662026317
 20
155.0
 30
0.0
 11
-12.604106620263151
 21
155.0
 31
0.0
  0
LINE
  5
2B9
  8
DATA
  6
CONTINUOUS
 62
     7
 10
-22.954106620263151
 20
141.99999999999989
 30
0.0
 11
-11.95410662026314
 21
141.99999999999989
 31
0.0
  0
LINE
  5
2BA
  8
DATA
  6
CONTINUOUS
 62
     7
 10
-22.954106620263151
 20
141.99999999999989
 30
0.0
 11
-22.954106620263151
 21
138.5
 31
0.0
  0
LINE
  5
2BB
  8
DATA
  6
CONTINUOUS
 62
     7
 10
-11.95410662026314
 20
141.99999999999989
 30
0.0
 11
-11.95410662026314
 21
138.5
 31
0.0
  0
LINE
  5
2BC
  8
DATA
  6
CONTINUOUS
 62
     7
 10
-25.454106620263151
 20
138.5
 30
0.0
 11
-25.454106620263151
 21
135.99999999999989
 31
0.0
  0
LINE
  5
2BD
  8
DATA
  6
CONTINUOUS
 62
     7
 10
-9.4541066202631487
 20
138.5
 30
0.0
 11
-9.4541066202631487
 21
135.99999999999989
 31
0.0
  0
LINE
  5
2BE
  8
DATA
  6
CONTINUOUS
 62
     7
 10
-25.454106620263151
 20
138.5
 30
0.0
 11
-9.4541066202631487
 21
138.5
 31
0.0
  0
CIRCLE
  5
2BF
  8
DATA
  6
CONTINUOUS
 62
     7
 10
-17.454106620263151
 20
150.99999999999989
 30
0.0
 40
1.0
  0
LINE
  5
2C0
  8
DATA
  6
CONTINUOUS
 62
     7
 10
-7.8041066202631688
 20
141.99999999999989
 30
0.0
 11
-7.8041066202631688
 21
155.0
 31
0.0
  0
LINE
  5
2C1
  8
DATA
  6
CONTINUOUS
 62
     7
 10
1.8958933797368469
 20
155.0
 30
0.0
 11
1.8958933797368469
 21
141.99999999999989
 31
0.0
  0
LINE
  5
2C2
  8
DATA
  6
CONTINUOUS
 62
     7
 10
-7.8041066202631688
 20
155.0
 30
0.0
 11
1.8958933797368469
 21
155.0
 31
0.0
  0
LINE
  5
2C3
  8
DATA
  6
CONTINUOUS
 62
     7
 10
-8.4541066202631452
 20
141.99999999999989
 30
0.0
 11
2.545893379736853
 21
141.99999999999989
 31
0.0
  0
LINE
  5
2C4
  8
DATA
  6
CONTINUOUS
 62
     7
 10
-8.4541066202631452
 20
141.99999999999989
 30
0.0
 11
-8.4541066202631452
 21
138.5
 31
0.0
  0
LINE
  5
2C5
  8
DATA
  6
CONTINUOUS
 62
     7
 10
2.545893379736853
 20
141.99999999999989
 30
0.0
 11
2.545893379736853
 21
138.5
 31
0.0
  0
LINE
  5
2C6
  8
DATA
  6
CONTINUOUS
 62
     7
 10
-10.95410662026314
 20
138.5
 30
0.0
 11
-10.95410662026314
 21
135.99999999999989
 31
0.0
  0
LINE
  5
2C7
  8
DATA
  6
CONTINUOUS
 62
     7
 10
5.045893379736853
 20
138.5
 30
0.0
 11
5.045893379736853
 21
135.99999999999989
 31
0.0
  0
LINE
  5
2C8
  8
DATA
  6
CONTINUOUS
 62
     7
 10
-10.95410662026314
 20
138.5
 30
0.0
 11
5.045893379736853
 21
138.5
 31
0.0
  0
CIRCLE
  5
2C9
  8
DATA
  6
CONTINUOUS
 62
     7
 10
-2.9541066202631461
 20
150.99999999999989
 30
0.0
 40
1.0
  0
LINE
  5
2CA
  8
DATA
  6
CONTINUOUS
 62
     7
 10
6.6958933797368303
 20
141.99999999999989
 30
0.0
 11
6.6958933797368303
 21
155.0
 31
0.0
  0
LINE
  5
2CB
  8
DATA
  6
CONTINUOUS
 62
     7
 10
16.395893379736851
 20
155.0
 30
0.0
 11
16.395893379736851
 21
141.99999999999989
 31
0.0
  0
LINE
  5
2CC
  8
DATA
  6
CONTINUOUS
 62
     7
 10
6.6958933797368303
 20
155.0
 30
0.0
 11
16.395893379736851
 21
155.0
 31
0.0
  0
LINE
  5
2CD
  8
DATA
  6
CONTINUOUS
 62
     7
 10
6.045893379736853
 20
141.99999999999989
 30
0.0
 11
17.045893379736849
 21
141.99999999999989
 31
0.0
  0
LINE
  5
2CE
  8
DATA
  6
CONTINUOUS
 62
     7
 10
6.045893379736853
 20
141.99999999999989
 30
0.0
 11
6.045893379736853
 21
138.5
 31
0.0
  0
LINE
  5
2CF
  8
DATA
  6
CONTINUOUS
 62
     7
 10
17.045893379736849
 20
141.99999999999989
 30
0.0
 11
17.045893379736849
 21
138.5
 31
0.0
  0
LINE
  5
2D0
  8
DATA
  6
CONTINUOUS
 62
     7
 10
3.545893379736853
 20
138.5
 30
0.0
 11
3.545893379736853
 21
135.99999999999989
 31
0.0
  0
LINE
  5
2D1
  8
DATA
  6
CONTINUOUS
 62
     7
 10
19.545893379736849
 20
138.5
 30
0.0
 11
19.545893379736849
 21
135.99999999999989
 31
0.0
  0
LINE
  5
2D2
  8
DATA
  6
CONTINUOUS
 62
     7
 10
3.545893379736853
 20
138.5
 30
0.0
 11
19.545893379736849
 21
138.5
 31
0.0
  0
CIRCLE
  5
2D3
  8
DATA
  6
CONTINUOUS
 62
     7
 10
11.545893379736849
 20
150.99999999999989
 30
0.0
 40
1.0
  0
LINE
  5
2D4
  8
DATA
  6
CONTINUOUS
 62
     7
 10
21.19589337973683
 20
141.99999999999989
 30
0.0
 11
21.19589337973683
 21
155.0
 31
0.0
  0
LINE
  5
2D5
  8
DATA
  6
CONTINUOUS
 62
     7
 10
30.895893379736851
 20
155.0
 30
0.0
 11
30.895893379736851
 21
141.99999999999989
 31
0.0
  0
LINE
  5
2D6
  8
DATA
  6
CONTINUOUS
 62
     7
 10
21.19589337973683
 20
155.0
 30
0.0
 11
30.895893379736851
 21
155.0
 31
0.0
  0
LINE
  5
2D7
  8
DATA
  6
CONTINUOUS
 62
     7
 10
20.545893379736849
 20
141.99999999999989
 30
0.0
 11
29.885536518797341
 21
141.99999999999989
 31
0.0
  0
LINE
  5
2D8
  8
DATA
  6
CONTINUOUS
 62
     7
 10
20.545893379736849
 20
141.99999999999989
 30
0.0
 11
20.545893379736849
 21
138.5
 31
0.0
  0
LINE
  5
2D9
  8
DATA
  6
CONTINUOUS
 62
     7
 10
18.045893379736849
 20
138.5
 30
0.0
 11
18.045893379736849
 21
135.99999999999989
 31
0.0
  0
LINE
  5
2DA
  8
DATA
  6
CONTINUOUS
 62
     7
 10
18.045893379736849
 20
138.5
 30
0.0
 11
27.954520939960691
 21
138.5
 31
0.0
  0
CIRCLE
  5
2DB
  8
DATA
  6
CONTINUOUS
 62
     7
 10
26.045893379736849
 20
150.99999999999989
 30
0.0
 40
1.0
  0
LINE
  5
2DC
  8
DATA
  6
CONTINUOUS
 62
     7
 10
342.00000000008617
 20
-143.18172340242029
 30
0.0
 11
355.00000000008669
 21
-143.18172340242029
 31
0.0
  0
LINE
  5
2DD
  8
DATA
  6
CONTINUOUS
 62
     7
 10
355.00000000008669
 20
-152.88172340242039
 30
0.0
 11
342.00000000008617
 21
-152.88172340242039
 31
0.0
  0
LINE
  5
2DE
  8
DATA
  6
CONTINUOUS
 62
     7
 10
355.00000000008669
 20
-143.18172340242029
 30
0.0
 11
355.00000000008669
 21
-152.88172340242039
 31
0.0
  0
LINE
  5
2DF
  8
DATA
  6
CONTINUOUS
 62
     7
 10
342.00000000008617
 20
-142.5317234024204
 30
0.0
 11
342.00000000008617
 21
-153.53172340242031
 31
0.0
  0
LINE
  5
2E0
  8
DATA
  6
CONTINUOUS
 62
     7
 10
342.00000000008617
 20
-142.5317234024204
 30
0.0
 11
339.99999999998772
 21
-142.5317234024204
 31
0.0
  0
LINE
  5
2E1
  8
DATA
  6
CONTINUOUS
 62
     7
 10
342.00000000008617
 20
-153.53172340242031
 30
0.0
 11
338.50000000008617
 21
-153.53172340242031
 31
0.0
  0
LINE
  5
2E2
  8
DATA
  6
CONTINUOUS
 62
     7
 10
338.50000000008617
 20
-140.03172340242031
 30
0.0
 11
336.00000000008617
 21
-140.03172340242031
 31
0.0
  0
LINE
  5
2E3
  8
DATA
  6
CONTINUOUS
 62
     7
 10
338.50000000008617
 20
-140.03172340242031
 30
0.0
 11
338.50000000008617
 21
-141.35088244114991
 31
0.0
  0
LINE
  5
2E4
  8
DATA
  6
CONTINUOUS
 62
     7
 10
338.50000000008617
 20
-152.4129135988232
 30
0.0
 11
338.50000000008617
 21
-156.03172340242031
 31
0.0
  0
CIRCLE
  5
2E5
  8
DATA
  6
CONTINUOUS
 62
     7
 10
351.00000000008617
 20
-148.03172340242031
 30
0.0
 40
1.0
  0
LINE
  5
2E6
  8
DATA
  6
CONTINUOUS
 62
     7
 10
342.00000000008617
 20
-158.1817234024204
 30
0.0
 11
355.00000000008669
 21
-158.1817234024204
 31
0.0
  0
LINE
  5
2E7
  8
DATA
  6
CONTINUOUS
 62
     7
 10
355.00000000008669
 20
-167.88172340242039
 30
0.0
 11
342.00000000008617
 21
-167.88172340242039
 31
0.0
  0
LINE
  5
2E8
  8
DATA
  6
CONTINUOUS
 62
     7
 10
355.00000000008669
 20
-158.1817234024204
 30
0.0
 11
355.00000000008669
 21
-167.88172340242039
 31
0.0
  0
LINE
  5
2E9
  8
DATA
  6
CONTINUOUS
 62
     7
 10
342.00000000008617
 20
-157.53172340242031
 30
0.0
 11
342.00000000008617
 21
-168.53172340242031
 31
0.0
  0
LINE
  5
2EA
  8
DATA
  6
CONTINUOUS
 62
     7
 10
342.00000000008617
 20
-157.53172340242031
 30
0.0
 11
338.50000000008617
 21
-157.53172340242031
 31
0.0
  0
LINE
  5
2EB
  8
DATA
  6
CONTINUOUS
 62
     7
 10
342.00000000008617
 20
-168.53172340242031
 30
0.0
 11
338.50000000008617
 21
-168.53172340242031
 31
0.0
  0
LINE
  5
2EC
  8
DATA
  6
CONTINUOUS
 62
     7
 10
338.50000000008617
 20
-155.0317234024204
 30
0.0
 11
336.00000000008617
 21
-155.0317234024204
 31
0.0
  0
LINE
  5
2ED
  8
DATA
  6
CONTINUOUS
 62
     7
 10
338.50000000008617
 20
-171.03172340242031
 30
0.0
 11
336.00000000008617
 21
-171.03172340242031
 31
0.0
  0
LINE
  5
2EE
  8
DATA
  6
CONTINUOUS
 62
     7
 10
338.50000000008617
 20
-155.0317234024204
 30
0.0
 11
338.50000000008617
 21
-171.03172340242031
 31
0.0
  0
CIRCLE
  5
2EF
  8
DATA
  6
CONTINUOUS
 62
     7
 10
351.00000000008617
 20
-163.0317234024204
 30
0.0
 40
1.0
  0
LINE
  5
2F0
  8
DATA
  6
CONTINUOUS
 62
     7
 10
341.99999999998772
 20
-143.2818980199865
 30
0.0
 11
341.99999999998772
 21
-150.4818980199866
 31
0.0
  0
LINE
  5
2F1
  8
DATA
  6
CONTINUOUS
 62
     7
 10
341.99999999998772
 20
-143.2818980199865
 30
0.0
 11
339.99999999998772
 21
-143.2818980199865
 31
0.0
  0
LINE
  5
2F2
  8
DATA
  6
CONTINUOUS
 62
     7
 10
341.99999999998772
 20
-150.4818980199866
 30
0.0
 11
339.99999999998772
 21
-150.4818980199866
 31
0.0
  0
LINE
  5
2F3
  8
DATA
  6
CONTINUOUS
 62
     7
 10
339.99999999998772
 20
-141.35088244114991
 30
0.0
 11
335.99999999998772
 21
-141.35088244114991
 31
0.0
  0
LINE
  5
2F4
  8
DATA
  6
CONTINUOUS
 62
     7
 10
339.99999999998772
 20
-152.4129135988232
 30
0.0
 11
335.99999999998772
 21
-152.4129135988232
 31
0.0
  0
LINE
  5
2F5
  8
DATA
  6
CONTINUOUS
 62
     7
 10
339.99999999998772
 20
-141.35088244114991
 30
0.0
 11
339.99999999998772
 21
-152.4129135988232
 31
0.0
  0
ENDSEC
  0
EOF
